Oops, an error
Loading. Please wait.

16 tab

version 3
version 3

Whole song

Interactive

53 views 1 this week
no commentswrite comment
1 2 3 4 5
2 more votes to show rating
add to favorites
×
Save as Personal and add changes to this tab that will be seen only by you. Learn more ›
×
You can save this tab as Personal to edit and correct it or add notes. All changes will be seen only by you. Learn more »
launch autoscroll
font size
0
reset
how to read this tab
guitar tuner
edit
Autoscroll
slow
fast
+/-
esc
set tempo
stop
                                                                
E||------------3--2-----|-------------------|------------------|
B||------------------3--|-------------------|------------------|
G||---------------------|--2----------------|------------------|
D||---------------------|-------------------|------------------|
A||---------------------|-------------------|------------------|
E||---------------------|-------------------|------------------|


                                                                 
------------------|----------------2--------|-------------------|
------------------|-----3-----3-------3-----|--3----------------|
------------------|--2-----2-------------2--|--2----------------|
------------------|-------------------------|-------------------|
------------------|-------------------------|-------------------|
------------------|-------------------------|-------------------|


                                                                
------------------|------------------|--2--------5----2--------|
------------------|------------------|-----3-------------3-----|
------------------|------------------|--------2-------------2--|
------------------|------------------|-------------------------|
------------------|------------------|-------------------------|
------------------|------------------|-------------------------|


                                                                              
------------5-------5----|------------5-------5----|------------5-------5----|
--3--3-3-3--3----3--3----|--3--3-3-3--3----3--3----|--3--3-3-3--3----3--3----|
--2--2-2-2-------2-------|--2--2-2-2-------2-------|--2--2-2-2-------2-------|
-------------------------|-------------------------|-------------------------|
-------------------------|-------------------------|-------------------------|
-------------------------|-------------------------|-------------------------|


                                                      
------------5-------5----|--2--2-2-2--3---3-3-3-5----|
--3--3-3-3--3----3--3----|--2--2-2-2--3---3-3-3-5----|
--2--2-2-2-------2-------|---------------------------|
-------------------------|---------------------------|
-------------------------|---------------------------|
-------------------------|---------------------------|


                                                        
--0--0-0-0--2---2-2-2-3----|------------0---0-0-0-2----|
--0--0-0-0--0---0-0-0-0----|--3--3-3-3--0---0-0-0-2----|
---------------------------|--2--2-2-2-----------------|
---------------------------|---------------------------|
---------------------------|---------------------------|
---------------------------|---------------------------|


                                                        
---------------------------|--2--2-2-2--3---3-3-3-5----|
--3--3-3-3--2---2-2-2-2----|--2--2-2-2--3---3-3-3-5----|
--2--2-2-2--0---0-0-0-0----|---------------------------|
---------------------------|---------------------------|
---------------------------|---------------------------|
---------------------------|---------------------------|


                                                        
--0--0-0-0--2---2-2-2-3----|------------0---0-0-0-2----|
--0--0-0-0--0---0-0-0-0----|--3--3-3-3--0---0-0-0-2----|
---------------------------|--2--2-2-2-----------------|
---------------------------|---------------------------|
---------------------------|---------------------------|
---------------------------|---------------------------|


                                                                          
---------------------------|--3--2-----------------|------------------2--|
--3--3-3-3--2---2-2-2-2----|--------3-----------3--|---------------3-----|
--2--2-2-2--0---0-0-0-0----|-----------2--------2--|------------2--------|
---------------------------|-----------------------|---------------------|
---------------------------|-----------------------|---------------------|
---------------------------|-----------------------|---------------------|


                                                                  
--3--2-----0----------|------------------|--3--2-----------------|
--------3--0----------|------------------|--------3-----------3--|
----------------------|------------------|-----------2--------2--|
----------------------|------------------|-----------------------|
----------------------|------------------|-----------------------|
----------------------|------------------|-----------------------|


                                                                        
---------------------|----------------------|--2-----------3--0--------|
------------3--3--3--|--2----------------3--|-----3--------------2--0--|
------------2--2--2--|--0----------2--2-----|--------2-----------------|
---------------------|----------------------|-----------4--------------|
---------------------|----------------------|--------------------------|
---------------------|----------------------|--------------------------|


                                                                       
----------2----5----10--|----14----17----22------|--------------------|
--3----3----------------|------------------------|--------------------|
--2---------------------|------------------------|--------------------|
------------------------|------------------------|--------------------|
------------------------|------------------------|--17----------------|
------------------------|------------------------|--17----------------|


                                                                
----------------------------------|----------------------------|
----------------------------------|----------------------------|
----------------------------------|----------------------------|
------------------17--16----------|----------------------------|
--17--17--17--17----------17------|------------17--17--17--17--|
--17--17--17--17--------------17--|--------17--17--17--17--17--|


                                                        
----------------------------------|--------------------|
----------------------------------|--------------------|
----------------------------------|--------------------|
----------------------------------|--19----------------|
--17--17--17--17--17--17--17--17--|--17----------------|
--17--17--17--17--17--17--17--17--|--------------------|


                                                                   
----------------------------------|------------------10-----------|
------17----------14------12------|----------------------8-----7--|
----------14----------------------|--12--11------11---------7-----|
--------------14------14------14--|----------12-------------------|
--16------------------------------|-------------------------------|
----------------------------------|-------------------------------|


                                                                               
--10--------10--------10-----|--------5--3----2----3--|----2---------3--2-----|
------8---------8---------8--|-----8------------------|---------3----------3--|
---------7---------7---------|--7---------------------|-----------------------|
-----------------------------|------------------------|-----------------------|
-----------------------------|------------------------|-----------------------|
-----------------------------|------------------------|-----------------------|


                                                                       
----------------------|-----------------------|-----------------------|
--3--------3--3----3--|----3----3----3--3--3--|--2----2--2----2----2--|
--2--------2--2----2--|----2----2----2--2--2--|--0----0--0----0----0--|
----------------------|-----------------------|-----------------------|
----------------------|-----------------------|-----------------------|
----------------------|-----------------------|-----------------------|


                                                      
-----0-----------0--------|--2--0--------0-----2-----|
--------2-----------2-----|--------3--0-----------0--|
--2--------2--2--------2--|-----------------2--------|
--------------------------|--------------------------|
--------------------------|--------------------------|
--------------------------|--------------------------|


                                                      
--0-----0-----2-----3--2--|--------------------------|
-----------2-----3--------|--3--3--3--3--3--3--3--3--|
-----2--------------------|--2--2--2--2--2--2--2--2--|
--------------------------|--------------------------|
--------------------------|--------------------------|
--------------------------|--------------------------|


                                                                     
--------------------------|--0------0------0----|--3----------------|
--3--3--3--3--3--3--3--3--|--0------0------0----|--3----------------|
--2--2--2--2--2--2--2--2--|--0------0------0----|--4----------------|
--------------------------|--2------2------2----|--5----------------|
--------------------------|---------------------|-------------------|
--------------------------|---------------------|-------------------|


                                                                            
--------------------------|--------------------------|--0------0------0----|
--3--3--3--3--3--3--3--3--|--3--3--3--3--3--3--3--3--|--0------0------0----|
--0--0--0--0--0--0--0--0--|--0--0--0--0--0--0--0--0--|--0------0------0----|
--------------------------|--------------------------|--2------2------2----|
--------------------------|--------------------------|---------------------|
--------------------------|--------------------------|---------------------|


                                                                          
--3----------------|--------------------------|--------------------------|
--3----------------|--3--3--3--3--3--3--3--3--|--3--3--3--3--3--3--3--3--|
--4----------------|--0--0--0--0--0--0--0--0--|--0--0--0--0--0--0--0--0--|
--5----------------|--------------------------|--------------------------|
-------------------|--------------------------|--------------------------|
-------------------|--------------------------|--------------------------|


                                                                             
--------------------------|--------------------------|----------------------|
--3--3--3--3--3--3--3--3--|--3--3--3--3--3--3--3--3--|--2----2--2------2----|
--0--0--0--0--0--0--0--0--|--0--0--0--0--0--0--0--0--|--0----0--0------0----|
--------------------------|--------------------------|----------------------|
--------------------------|--------------------------|----------------------|
--------------------------|--------------------------|----------------------|


                                                                             
--------------0-----------|----------2----5----10--|----14----17----22------|
--3--2--0--------3--2-----|--3----3----------------|------------------------|
-----------0-----------2--|--2---------------------|------------------------|
--------------------------|------------------------|------------------------|
--------------------------|------------------------|------------------------|
--------------------------|------------------------|------------------------|


                                                        
--------------------|----------------------------------|
--------------------|----------------------------------|
--------------------|----------------------------------|
--------------------|------------------17--16----------|
--17----------------|--17--17--17--17----------17------|
--17----------------|--17--17--17--17--------------17--|


                                                                
----------------------------|----------------------------------|
----------------------------|----------------------------------|
----------------------------|----------------------------------|
----------------------------|----------------------------------|
------------17--17--17--17--|--17--17--17--17--17--17--17--17--|
--------17--17--17--17--17--|--17--17--17--17--17--17--17--17--|


                                                        
--------------------|----------------------------------|
--------------------|------17----------14------12------|
--------------------|----------14----------------------|
--19----------------|--------------14------14------14--|
--17----------------|--16------------------------------|
--------------------|----------------------------------|


                                                              
------------------10-----------|--10--------10--------10-----|
----------------------8-----7--|------8---------8---------8--|
--12--11------11---------7-----|---------7---------7---------|
----------12-------------------|-----------------------------|
-------------------------------|-----------------------------|
-------------------------------|-----------------------------|


                                                                        
--------5--3----2----3--|----2---------3--2-----|----------------------|
-----8------------------|---------3----------3--|--3--------3--3----3--|
--7---------------------|-----------------------|--2--------2--2----2--|
------------------------|-----------------------|----------------------|
------------------------|-----------------------|----------------------|
------------------------|-----------------------|----------------------|


                                                                           
-----------------------|-----------------------|-----0-----------0--------|
----3----3----3--3--3--|--2----2--2----2----2--|--------2-----------2-----|
----2----2----2--2--2--|--0----0--0----0----0--|--2--------2--2--------2--|
-----------------------|-----------------------|--------------------------|
-----------------------|-----------------------|--------------------------|
-----------------------|-----------------------|--------------------------|


                                                      
--2--0--------0-----2-----|--0-----0-----2-----3--2--|
--------3--0-----------0--|-----------2-----3--------|
-----------------2--------|-----2--------------------|
--------------------------|--------------------------|
--------------------------|--------------------------|
--------------------------|--------------------------|


                                                                            
--------------------------|--------------------------|--5------------------|
--3--3--3--3--3--3--3--3--|--3--3--3--3--3--3--3--3--|--3------3------3----|
--2--2--2--2--2--2--2--2--|--2--2--2--2--2--2--2--2--|--2------2------2----|
--------------------------|--------------------------|--0------------------|
--------------------------|--------------------------|---------------------|
--------------------------|--------------------------|---------------------|


                                                      
--------------------------|--0--0--0--0--0--0--0--0--|
--3--3--3--3--3--3--3--3--|--0--0--0--0--0--0--0--0--|
--2--2--2--2--2--2--2--2--|--------------------------|
--------------------------|--------------------------|
--------------------------|--------------------------|
--------------------------|--------------------------|


                                                      
-----2--------3-----2-----|--------------------------|
--------3--------2-----0--|--3--3--3--3--3--3--3--3--|
--2--------2--------------|--2--2--2--2--2--2--2--2--|
--------------------------|--------------------------|
--------------------------|--------------------------|
--------------------------|--------------------------|


                                                                   
--------------------------|--2----------------|-------------------|
--3--3--3--3--3--3--3--3--|--3----------------|--3----------------|
--2--2--2--2--2--2--2--2--|--2----------------|--2----------------|
--------------------------|-------------------|--4----------------|
--------------------------|-------------------|-------------------|
--------------------------|-------------------|-------------------|


                                                                     
--0------0------0----|--3----------------|--------------------------|
--0------0------0----|--3----------------|--3--3--3--3--3--3--3--3--|
--0------0------0----|--4----------------|--0--0--0--0--0--0--0--0--|
--2------2------2----|--5----------------|--------------------------|
---------------------|-------------------|--------------------------|
---------------------|-------------------|--------------------------|


                                                                     
--------------------------|--0------0------0----|--3----------------|
--3--3--3--3--3--3--3--3--|--0------0------0----|--3----------------|
--0--0--0--0--0--0--0--0--|--0------0------0----|--4----------------|
--------------------------|--2------2------2----|--5----------------|
--------------------------|---------------------|-------------------|
--------------------------|---------------------|-------------------|


                                                      
--------------------------|--------------------------|
--3--3--3--3--3--3--3--3--|--3--3--3--3--3--3--3--3--|
--0--0--0--0--0--0--0--0--|--0--0--0--0--0--0--0--0--|
--------------------------|--------------------------|
--------------------------|--------------------------|
--------------------------|--------------------------|


                                                       
--------------------------|--2--2-2-2--3---3-3-3-5----|
--3--3--3--3--3--3--3--3--|--2--2-2-2--3---3-3-3-5----|
--0--0--0--0--0--0--0--0--|---------------------------|
--------------------------|---------------------------|
--------------------------|---------------------------|
--------------------------|---------------------------|


                                                        
--0--0-0-0--2---2-2-2-3----|------------0---0-0-0-2----|
--0--0-0-0--0---0-0-0-0----|--3--3-3-3--0---0-0-0-2----|
---------------------------|--2--2-2-2-----------------|
---------------------------|---------------------------|
---------------------------|---------------------------|
---------------------------|---------------------------|


                                                        
---------------------------|--2--2-2-2--3---3-3-3-5----|
--3--3-3-3--2---2-2-2-2----|--2--2-2-2--3---3-3-3-5----|
--2--2-2-2--0---0-0-0-0----|---------------------------|
---------------------------|---------------------------|
---------------------------|---------------------------|
---------------------------|---------------------------|


                                                        
--0--0-0-0--2---2-2-2-3----|------------0---0-0-0-2----|
--0--0-0-0--0---0-0-0-0----|--3--3-3-3--0---0-0-0-2----|
---------------------------|--2--2-2-2-----------------|
---------------------------|---------------------------|
---------------------------|---------------------------|
---------------------------|---------------------------|


                                                                      
---------------------------|--0------0------0----|--3----------------|
--3--3-3-3--2---2-2-2-2----|--0------0------0----|--3----------------|
--2--2-2-2--0---0-0-0-0----|--0------0------0----|--4----------------|
---------------------------|--2------2------2----|--5----------------|
---------------------------|---------------------|-------------------|
---------------------------|---------------------|-------------------|


                                                                            
--------------------------|--------------------------|--0------0------0----|
--3--3--3--3--3--3--3--3--|--3--3--3--3--3--3--3--3--|--0------0------0----|
--0--0--0--0--0--0--0--0--|--0--0--0--0--0--0--0--0--|--0------0------0----|
--------------------------|--------------------------|--2------2------2----|
--------------------------|--------------------------|---------------------|
--------------------------|--------------------------|---------------------|


                                                           
--3----------------|--3----------------|------------------|
--3----------------|--3----------------|------------------|
--4----------------|--4----------------|------------------|
--5----------------|--5----------------|------------------|
-------------------|-------------------|------------------|
-------------------|-------------------|------------------|


                                                                              
------------5-------5----|------------5-------5----|------------5-------5----|
--3--3-3-3--3----3--3----|--3--3-3-3--3----3--3----|--3--3-3-3--3----3--3----|
--2--2-2-2-------2-------|--2--2-2-2-------2-------|--2--2-2-2-------2-------|
-------------------------|-------------------------|-------------------------|
-------------------------|-------------------------|-------------------------|
-------------------------|-------------------------|-------------------------|


                                                                              
------------5-------5----|------------5-------5----|------------5-------5----|
--3--3-3-3--3----3--3----|--3--3-3-3--3----3--3----|--3--3-3-3--3----3--3----|
--2--2-2-2-------2-------|--2--2-2-2-------2-------|--2--2-2-2-------2-------|
-------------------------|-------------------------|-------------------------|
-------------------------|-------------------------|-------------------------|
-------------------------|-------------------------|-------------------------|


                                                                           
------------5-------5----|------------5-------5----|----------------------|
--3--3-3-3--3----3--3----|--3--3-3-3--3----3--3----|--3--3--3--3----------|
--2--2-2-2-------2-------|--2--2-2-2-------2-------|--2--2--2--2----------|
-------------------------|-------------------------|--0--0--0--0----------|
-------------------------|-------------------------|----------------------|
-------------------------|-------------------------|----------------------|
Suggest correction
Creating personal tab
Creating personal tab
You can edit any tab online and save it as your Personal.

You can edit, replace or remove any tab part or add personal notes – all changes will be seen only by you.

Personal tabs can be accessed anytime from any device, even offline.
Learn more »
Give kudos to tab author, rate the tab!
1 2 3 4 5
comments
print report bad tab
guest
Wanna post a correction for this tab? Suggest correction