Oops, an error
Loading. Please wait.

16 bass

version 1
version 1

Whole song

Interactive

154 views 1 this week
no commentswrite comment
1 2 3 4 5
3 more votes to show rating
add to favorites
×
Save as Personal and add changes to this tab that will be seen only by you. Learn more ›
×
You can save this tab as Personal to edit and correct it or add notes. All changes will be seen only by you. Learn more »
launch autoscroll
font size
0
reset
guitar tuner
edit
Autoscroll
slow
fast
+/-
esc
set tempo
stop
Bajo


                                                                  
G||------------------|----------------7----|----------------7----|
D||------------------|--0------0-----------|--0------0-----------|
A||------------------|---------------------|---------------------|
E||------------------|---------------------|---------------------|


                                                                  
----------------7----|----------------7----|----------------7----|
--0------0-----------|--0------0-----------|--0------0-----------|
---------------------|---------------------|---------------------|
---------------------|---------------------|---------------------|


                                                                  
----------------7----|----------------7----|----------------7----|
--0------0-----------|--0------0-----------|--0------0-----------|
---------------------|---------------------|---------------------|
---------------------|---------------------|---------------------|


                                                                              
------------2-------2----|------------2-------2----|------------2-------2----|
--0--0-0-0-------0-------|--0--0-0-0-------0-------|--0--0-0-0-------0-------|
-------------------------|-------------------------|-------------------------|
-------------------------|-------------------------|-------------------------|


                                                                                
------------2-------2----|--------------------------|--------------------0--0--|
--0--0-0-0-------0-------|--------------------2--2--|--4--4--4--4--4--4--------|
-------------------------|--4--4--4--4--4--4--------|--------------------------|
-------------------------|--------------------------|--------------------------|


                                                      
--------------------------|--------------------------|
--0--0--0--0--0--0--2--2--|--0--0--0-----------------|
--------------------------|-----------4--4--4--4--4--|
--------------------------|--------------------------|


                                                      
--------------------------|--------------------0--0--|
--------------------2--2--|--4--4--4--4--4--4--------|
--4--4--4--4--4--4--------|--------------------------|
--------------------------|--------------------------|


                                                                            
--------------------------|--------------------------|--0------------------|
--0--0--0--0--0--0--2--2--|--0--0--0-----------------|---------0-----------|
--------------------------|-----------4--4--4--4--4--|------------------0--|
--------------------------|--------------------------|---------------------|


                                                                
----------------------|---------------------|------------------|
----------------------|---------------------|------------------|
--------0----0--0--0--|--0----0--0----------|------------------|
----------------------|---------------------|------------------|


                                                                   
--0------------------|----------------------|---------------------|
---------0-----------|----------------------|---------------------|
------------------0--|--------0----0--0--0--|--0----0--0----------|
---------------------|----------------------|---------------------|


                                                                        
------------------|-------------------------|--------------------------|
------------------|-------------------------|--------------------------|
------------------|--0----0--0--0--0--0--0--|--0--0--0--0--0--0--0--0--|
------------------|-------------------------|--------------------------|


                                                      
--------------------------|--------------------------|
--------------------------|--------------------------|
--0--0--0--0--0--0--0--0--|--0--0--0--0--0--0--0--0--|
--------------------------|--------------------------|


                                                      
--------------------------|--------------------------|
--0--0--0--0--0--0--0--0--|--0--0--0--0--0--0--------|
--------------------------|--------------------4--2--|
--------------------------|--------------------------|


                                                      
--------------------------|--------------------------|
--------------------------|--------------------------|
--0--0--0--0--0--0--0--0--|--0--0--0--0--0--0--0--0--|
--------------------------|--------------------------|


                                                      
--------------------------|--------------------------|
--------------------------|--------------------------|
--------------------------|--------------------0--4--|
--3--3--3--3--3--3--3--3--|--3--3--3--3--3--3--------|


                                                      
--------------------------|--------------------------|
--0--0--0--0--0--0--0--0--|--0--0--0--0--0--0--0--0--|
--------------------------|--------------------------|
--------------------------|--------------------------|


                                                      
--------------------------|--------------------------|
--0--0--0--0--0--0--0--0--|--0--0--0--0--0--0--------|
--------------------------|--------------------4--2--|
--------------------------|--------------------------|


                                                      
--------------------------|--------------------------|
--------------------------|--------------------------|
--0--0--0--0--0--0--0--0--|--0--0--0--0--0--0--0--0--|
--------------------------|--------------------------|


                                                      
--------------------------|--------------------------|
--------------------------|--------------------------|
--------------------------|--------------------0--4--|
--3--3--3--3--3--3--3--3--|--3--3--3--3--3--3--------|


                                                      
--------------------------|--------------------------|
--0--0--0--0--0--0--0--0--|--0--0--0--0--0--0--0--0--|
--------------------------|--------------------------|
--------------------------|--------------------------|


                                                      
--------------------------|--------------------------|
--2--2--2--2--2--2--2--2--|--2--2--2--2--2--2--2--2--|
--------------------------|--------------------------|
--------------------------|--------------------------|


                                                      
--------------------------|--------------------------|
--0--0--0--0--0--0--0--0--|--0--0--0--0--0--0--0--0--|
--------------------------|--------------------------|
--------------------------|--------------------------|


                                                      
--------------------------|--------------------------|
--2--2--2--2--2--2--2--2--|--2--2--2--2--2--2--2--2--|
--------------------------|--------------------------|
--------------------------|--------------------------|


                                                      
--------------------------|--------------------------|
--0--0--0--0--0--0--0--0--|--0--0--0--0--0--0--0--0--|
--------------------------|--------------------------|
--------------------------|--------------------------|


                                                      
--------------------------|--------------------------|
--0--0--0--0--0--0--0--0--|--0--0--0--0--0--0--0--0--|
--------------------------|--------------------------|
--------------------------|--------------------------|


                                                                                
--------------------------|--------------------------|-------------------------|
--------------------------|--------------------------|-------------------------|
--4--4--4--4--4--4--4--4--|--4--4--4--4--4--4--4--4--|--0----0--0--0--0--0--0--|
--------------------------|--------------------------|-------------------------|


                                                      
--------------------------|--------------------------|
--------------------------|--------------------------|
--0--0--0--0--0--0--0--0--|--0--0--0--0--0--0--0--0--|
--------------------------|--------------------------|


                                                      
--------------------------|--------------------------|
--------------------------|--0--0--0--0--0--0--0--0--|
--0--0--0--0--0--0--0--0--|--------------------------|
--------------------------|--------------------------|


                                                      
--------------------------|--------------------------|
--0--0--0--0--0--0--------|--------------------------|
--------------------4--2--|--0--0--0--0--0--0--0--0--|
--------------------------|--------------------------|


                                                      
--------------------------|--------------------------|
--------------------------|--------------------------|
--0--0--0--0--0--0--0--0--|--------------------------|
--------------------------|--3--3--3--3--3--3--3--3--|


                                                      
--------------------------|--------------------------|
--------------------------|--0--0--0--0--0--0--0--0--|
--------------------0--4--|--------------------------|
--3--3--3--3--3--3--------|--------------------------|


                                                      
--------------------------|--------------------------|
--0--0--0--0--0--0--0--0--|--0--0--0--0--0--0--0--0--|
--------------------------|--------------------------|
--------------------------|--------------------------|


                                                      
--------------------------|--------------------------|
--0--0--0--0--0--0--------|--------------------------|
--------------------4--2--|--0--0--0--0--0--0--0--0--|
--------------------------|--------------------------|


                                                      
--------------------------|--------------------------|
--------------------------|--------------------------|
--0--0--0--0--0--0--0--0--|--------------------------|
--------------------------|--3--3--3--3--3--3--3--3--|


                                                      
--------------------------|--------------------------|
--------------------------|--0--0--0--0--0--0--0--0--|
--------------------0--4--|--------------------------|
--3--3--3--3--3--3--------|--------------------------|


                                                      
--------------------------|--------------------------|
--0--0--0--0--0--0--0--0--|--0--0--0--0--0--0--0--0--|
--------------------------|--------------------------|
--------------------------|--------------------------|


                                                      
--------------------------|--------------------------|
--0--0--0--0--0--0--0--0--|--2--2--2--2--2--2--2--2--|
--------------------------|--------------------------|
--------------------------|--------------------------|


                                                      
--------------------------|--------------------------|
--0--0--0--0--0--0--0--0--|--0--0--0--0--0--0--0--0--|
--------------------------|--------------------------|
--------------------------|--------------------------|


                                                      
--------------------------|--------------------------|
--2--2--2--2--2--2--2--2--|--0--0--0--0--0--0--0--0--|
--------------------------|--------------------------|
--------------------------|--------------------------|


                                                      
--------------------------|--------------------------|
--0--0--0--0--0--0--0--0--|--2--2--2--2--2--2--2--2--|
--------------------------|--------------------------|
--------------------------|--------------------------|


                                                      
--------------------------|--------------------------|
--2--2--2--2--2--2--2--2--|--0--0--0--0--0--0--0--0--|
--------------------------|--------------------------|
--------------------------|--------------------------|


                                                      
--------------------------|--------------------------|
--0--0--0--0--0--0--0--0--|--2--2--2--2--2--2--2--2--|
--------------------------|--------------------------|
--------------------------|--------------------------|


                                                      
--------------------------|--------------------------|
--2--2--2--2--2--2--2--2--|--0--0--0--0--0--0--0--0--|
--------------------------|--------------------------|
--------------------------|--------------------------|


                                                      
--------------------------|--------------------------|
--0--0--0--0--0--0--0--0--|--0--0--0--0--0--0--0--0--|
--------------------------|--------------------------|
--------------------------|--------------------------|


                                                      
--------------------------|--------------------0--0--|
--------------------2--2--|--4--4--4--4--4--4--------|
--4--4--4--4--4--4--------|--------------------------|
--------------------------|--------------------------|


                                                      
--------------------------|--------------------------|
--0--0--0--0--0--0--2--2--|--0--0--0-----------------|
--------------------------|-----------4--4--4--4--4--|
--------------------------|--------------------------|


                                                      
--------------------------|--------------------0--0--|
--------------------2--2--|--4--4--4--4--4--4--------|
--4--4--4--4--4--4--------|--------------------------|
--------------------------|--------------------------|


                                                      
--------------------------|--------------------------|
--0--0--0--0--0--0--2--2--|--0--0--0-----------------|
--------------------------|-----------4--4--4--4--4--|
--------------------------|--------------------------|


                                                      
--------------------------|--------------------------|
--2--2--2--2--2--2--2--2--|--2--2--2--2--2--2--2--2--|
--------------------------|--------------------------|
--------------------------|--------------------------|


                                                      
--------------------------|--------------------------|
--0--0--0--0--0--0--0--0--|--0--0--0--0--0--0--0--0--|
--------------------------|--------------------------|
--------------------------|--------------------------|


                                                      
--------------------------|--------------------------|
--2--2--2--2--2--2--2--2--|--2--2--2--2--2--2--2--2--|
--------------------------|--------------------------|
--------------------------|--------------------------|


                                                                                
--------------------------|--------------------------|------------2-------2----|
--0--0--0--0--0--0--0--0--|--0--0--0--0--0--0--0--0--|--0--0-0-0-------0-------|
--------------------------|--------------------------|-------------------------|
--------------------------|--------------------------|-------------------------|


                                                                              
------------2-------2----|------------2-------2----|------------2-------2----|
--0--0-0-0-------0-------|--0--0-0-0-------0-------|--0--0-0-0-------0-------|
-------------------------|-------------------------|-------------------------|
-------------------------|-------------------------|-------------------------|


                                                                              
------------2-------2----|------------2-------2----|------------2-------2----|
--0--0-0-0-------0-------|--0--0-0-0-------0-------|--0--0-0-0-------0-------|
-------------------------|-------------------------|-------------------------|
-------------------------|-------------------------|-------------------------|


                                                                     
------------2-------2----|----------------------|------------------||
--0--0-0-0-------0-------|--0--0--0--0----------|------------------||
-------------------------|----------------------|------------------||
-------------------------|----------------------|------------------||

            
            
Suggest correction
Creating personal tab
Creating personal tab
You can edit any tab online and save it as your Personal.

You can edit, replace or remove any tab part or add personal notes – all changes will be seen only by you.

Personal tabs can be accessed anytime from any device, even offline.
Learn more »
Give kudos to tab author, rate the tab!
1 2 3 4 5
comments
print report bad tab
guest
Wanna post a correction for this tab? Suggest correction