Oops, an error
Loading. Please wait.

Agosto tab

version 2
version 2

Whole song

Interactive

197 views 1 this week
no commentswrite comment
1 2 3 4 5
3 more votes to show rating
add to favorites
×
Save as Personal and add changes to this tab that will be seen only by you. Learn more ›
×
You can save this tab as Personal to edit and correct it or add notes. All changes will be seen only by you. Learn more »
launch autoscroll
font size
0
reset
how to read this tab
guitar tuner
edit
Autoscroll
slow
fast
+/-
esc
set tempo
stop
Intro: toca A (La) unas veces y después...
                              D                        D
|----------0------------------2--0----0----------------2--------------|
|--2---------2----------------3------------3/2---------3--------------|
|----2---2-----2-----2--1-----2----2----2------2-------2--------------|
|------0-----------2-------2--0------------------2?----0--------------|
|-----------------------------0------------------------0--------------|
|-----------------------------0------------------------0--------------|
y sigue                    D                    D
|0---0---------------------2---0---0------------2---------------------|
|--------3/2---------------3-----------3/2------3---------------------|
|--2---2-----2-----2--1----2-----2---2------2---2---------------------|
|---------------2-------2--0--------------------0---------------------|
|--------------------------0--------------------0---------------------|
|--------------------------0--------------------0---------------------|

después, antes y en los versos tocas ...
EMPIEZA VERSO
|---------------------------------------------------------------------|
|---2---2----2-----2---2-----2---2-----2--2-----2--2-----2--2-----2---|
|4----4---------4---------4---------4--------4--------4--------4------|
|---------------------------------------------------------------------|
|---------------------------------------------------------------------|
|---------------------------------------------------------------------|
y sigue así excepto cuando dice ... de dulce sabor ... ahí tienes que hacer
|------------------4--|
|----2-----2---2------|
|-------4-------------|
|---------------------|
|---------------------|
|---------------------|
este también se usa cuando dice ... me arde el fuego ... y en todas las que
llevan ese tono, si lo haces oyendo la canción vas a saber donde es

cuando dice ...de mis manos, directo al corazón... y en todas
 las que llevan ese tono
(si oyes la canción vas a ver)
|--------0-------------0----------------------------------------------|
|-0--0----------0--0--------------------------------------------------|
|---------------------------------------------------------------------|
|---------------------------------------------------------------------|
|---------------------------------------------------------------------|
|---------------------------------------------------------------------|
TERMINA VERSO

EMPIEZA CORO
cuando dice .. una vez en la vida ...
|------5-4-5-----5-4-5------4-5----4-5-------0--------0--------0------|
|------------------------------------------7---7----7---7----7---7----|
|---6---------6--------6---------6-------7--------7--------7----------|
|---------------------------------------------------------------------|
|---------------------------------------------------------------------|
|---------------------------------------------------------------------|

|------0-------|
|----7---7-----|
|--7-----------| 2 veces
|--------------|
|--------------|
|--------------|
TERMINA CORO

EMPIEZA SOLO                 D                          D
|---------2--0-----0--5--4------2---0---0------------------2----------|
|---------------2----------5----3-----------3/2------------3----------|
|---2---------------------------2-----2---2--------2-1-----2----------|
|------4------------------------0----------------2------2--0----------|
|-------------------------------0--------------------------0----------|
|-------------------------------0--------------------------0----------|
                          D                 D     D     D     D
|-0---0-------------------2--0---0----------2-----2-----2-----2-------|
|---------3/2-------------3----------3/2----3-----3-----3-----3-------|
|---2---2--------2-1------2----2---2-----2--2-----2-----2-----2-------|
|--------------2------2---0-----------------0-----0-----0-----0-------|
|-------------------------0-----------------0-----0-----0-----0-------|
|-------------------------0-----------------0-----0-----0-----0-------|


2do solo

|------------------------------------------|
|-9h10--10--9h10--10--9h10--9h10--10--9h10-|
|-9-----9---9-----9---9-----9-----9---9----|
|------------------------------------------|
|------------------------------------------|
|------------------------------------------|

|------------------------------------------|
|-10--9h10--9h10--10--9h10-----------------|
|-9---9-----9-----9---9--------------------|
|------------------------------------------|
|------------------------------------------|
|------------------------------------------|


|-----------------------------------------|
|--10--9--10--9h10-----10------10------10-|
|-------------------9---------------------|
|--------------------------12------11-----|
|-----------------------------------------|
|-----------------------------------------|

|-----------------------------------------|
|-----------------------------------------|
|-6-66-66--7-6-9--66--7-6-9---------------|
|-----------------------------------------|
|-----------------------------------------|
|-----------------------------------------|


|-----------------------------------------|
|-----------------------------------------|
|--66-7-6-9--66--6h7--7--6h7--7--6h7--6h7-|
|-----------------------------------------|
|-----------------------------------------|
|-----------------------------------------|

|-----------------------------------------|
|---------------9-------------------------|
|-7--6h7--7--9-----9----------------------|
|-----------------------------------------|
|-----------------------------------------|
|-----------------------------------------|


|-----------------------------------------------------|
|-9h10--10--9h10--10--9h10--9h10--10--9h10--10--9h10--|
|-9-----9---9-----9---9-----9-----9---9-----9---9-----|
|-----------------------------------------------------|
|-----------------------------------------------------|
|-----------------------------------------------------|

|--12v--12v--12------10------9--------------|
|----------------10------10-----10----------|
|-----------------------------------9--7--4-|
|-------------------------------------------|
|-------------------------------------------|
|-------------------------------------------|


TERMINA SOLO
El orden es:
INTRO
VERSO
VERSO
CORO
SOLO
VERSO
VERSO
CORO
SOLO (de acordes nada mas) A D A A D E
CORO
Y termina con A

¡heroes para siempre!

            
            
Suggest correction
Creating personal tab
Creating personal tab
You can edit any tab online and save it as your Personal.

You can edit, replace or remove any tab part or add personal notes – all changes will be seen only by you.

Personal tabs can be accessed anytime from any device, even offline.
Learn more »
Give kudos to tab author, rate the tab!
1 2 3 4 5
comments
print report bad tab
guest
Wanna post a correction for this tab? Suggest correction