Oops, an error
Loading. Please wait.

Apuesta Al Rock & Roll bass

version 2
version 2

Whole song

229 views 3 this week
no commentswrite comment
1 2 3 4 5
3 more votes to show rating
add to favorites
×
Save as Personal and add changes to this tab that will be seen only by you. Learn more ›
×
You can save this tab as Personal to edit and correct it or add notes. All changes will be seen only by you. Learn more »
launch autoscroll
font size
0
reset
guitar tuner
edit
Autoscroll
slow
fast
+/-
esc
set tempo
stop
esta cancion tiene mas adornos en el bajo en este disco
que la normal cantada por heroes.

fig.1
------------------------|-----------------------------|
------------------------|-----------------------------|
--10-9-7---7-7-9-10---10|---10----9-7---7-7-9-10----10|
10-------7---------10---|10----10-----7----------10---|

fig.2A         fig.2B         fig.2C      fig.2D 
------------|  ------------|  ----------| ------------ 
------------|  ------------|  ----------| -------------
---9-7-5---5|  ---------5-5|  --10-7-5-5| --------9-5-5
10-------5--|  10-11-12--5-|  10------5-| 10-10-10---5-

fig.3
---------|-------------|----------|
---------|-------------|---7-9---9|
5-6-7---7|-7-9-10----10|10-----9--|
------7--|--------10---|----------|

el erden de estas figuras es el sig.(de izquierda
a derecha)

1er. verso= fig.1+fig.2A+fig.3
2do. verso= fig.1+fig.2B+fig.3
coro= fig.1+fig.2C+fig.3
3er. verso= fig.1+fig.2C+fig.3
intermedio= fig.1+fig.2D+fig.3
            fig.1+fig.2B+fig.3
coro= fig.1+fig.2C+fig.3
ultimo verso= fig.1+fig.2A+fig.3 

las fig.1 y 3 nunca cambian de orden solo la fig.2

como no tengo bajo esta la saque en guitarra asi que
pueden transportarla a su agrado
dudas o sugerencias a:
           theedge@

            
            
Suggest correction
Creating personal tab
Creating personal tab
You can edit any tab online and save it as your Personal.

You can edit, replace or remove any tab part or add personal notes – all changes will be seen only by you.

Personal tabs can be accessed anytime from any device, even offline.
Learn more »
Give kudos to tab author, rate the tab!
1 2 3 4 5
comments
print report bad tab
guest
Wanna post a correction for this tab? Suggest correction