Oops, an error
Loading. Please wait.

Apuesta Al Rock & Roll tab

version 3
version 3

Whole song

287 views 1 this week
no commentswrite comment
1 2 3 4 5
3 more votes to show rating
add to favorites
×
Save as Personal and add changes to this tab that will be seen only by you. Learn more ›
×
You can save this tab as Personal to edit and correct it or add notes. All changes will be seen only by you. Learn more »
launch autoscroll
font size
0
reset
how to read this tab
guitar tuner
edit
Autoscroll
slow
fast
+/-
esc
set tempo
stop
Excelente cancion de heroes, aunque no sea de ellos,
es una de las mejores.
Apuesten por el rock and roll!!!!


Intro:

       Em                   G   Em   G  Em   G  Em   G
|----------------|
|----------------|
|----------------|
|----------------|
|----------------|
|---3-2-0--------|


Em                     G
  ya no puedo darte el corazón
Em                     G
  iré donde quieran mis botas
D                                      Em
  y si quieres que te diga qué hay que hacer,
     G                           B
  te diré que apuestes por mi derrota


Em                           G
  quítate la ropa, así está bien
Em                  G
  no dejes nada por hacer
          D                     Em
  si has venido a comprarme, lárgate
          G                   B
  si vas a venir conmigo, agárrate

Em                    G
  larguémonos, chica, hacia el mar
         Em             G
  no hay amanecer en esta ciudad
        D                Em
  y no sé si nací para correr
          G                      B
  pero quizás sí que nací para apostar


Em                    G
  sé que ya nada va ocurrir
Em                            G
  pero ahora estoy contra las cuerdas
        D                  Em
  y no veo ni una forma de salir
        G                             B
  pero voy a apostar fuerte mientras pueda

Solo:

Guitarra 1
|-------------------------------------------------------------------
|-------------------------------------------------------------------
|-------------------------------------------------------------7/9---
|--------7---7h9p7h9-b7p5---7p5-----5/7-7/9-9h12-9b-12p9-9h12-------
|---5/7----7--------------7-----7p5---------------------------------
|-------------------------------------------------------------------

|------------------------------10--------------------------------------
|-8-8-10b(11r10)p8-10p8---8/12----12-10--------------------------------
|----------------------9----------------12-14bp12-14p12--9-9h12-97-7--
|----------------------------------------------------------------------
|----------------------------------------------------------------------
|----------------------------------------------------------------------

|-----------------------------------12~~---12p10--10--12~~-----------
|-----8-10b(11r10)p8-10p8---8-1012------12-----12--12------------10--
|-7/9---------------------9----------------------------------9-12-----
|---------------------------------------------------------------------
|---------------------------------------------------------------------
|---------------------------------------------------------------------

|----------------------------------------10---------------------------
|---------10h12p10------13--12-13-10-12-------------------------------
|-12-9-12---------12-9------------------12-14-11-12-9-11-7-9-5-7-4-5--
|---------------------------------------------------------------------
|---------------------------------------------------------------------
|---------------------------------------------------------------------

 (Guitarra 1)
|--------------------------------------------------------
|--------------------------------------------------------
|--------------------------------------------------------
|------7-9-5-7-4-5---------------------------------------
|------------------7-------------------------------------
|--------------------------------------------------------
|
|Entra guitarra 2
|-------------------12/----------------------------------
|-------------------12/--12~--10brp-8--10b-8~~--12~~---
|-------------------9-----------------9------------------
|--------------------------------------------------------
|--------------------------------------------------------
|--------------------------------------------------------

 (guitarra 2)
|-------------------------------------------------------------------
|---------------------------------------8-10-8h10-----8-1012-12~~-
|------7---9-7~~----------7-7h9~~------7-------------7--------------
|--79---9-----------(5)9------------9------------~9---------------
|---------------7~-------------------------------------------------
|-------------------------------------------------------------------

|---------------------------------------------------------
|-15b(17)--(17)r15p12-------------------------------------
|---------------------14br-12-1416-16~~~-----------------
|----------------------------------------------17p14~~----
|---------------------------------------------------------
|---------------------------------------------------------

|---------------------------------15---
|------------------------15--1517-----
|---------12--12h14-1416--16----------
|-12-12h14--14-------------------------
|--------------------------------------
|--------------------------------------


Em                    G
  larguémonos, chica, hacia el mar
        Em           G
  no hay amanecer en esta ciudad
        D              Em
  y no sé si nací para correr
        G                      B
  pero quizás sí que nací para apostar


Em                          G                             Em
  ya no puedo darte el corazón  (perdí mi apuesta por el rock & roll)
                          G
  perdí mi apuesta por el rock & roll (perdí mi apuesta)
D                       Em
  es la deuda que tengo que pagar
          G                  Em
  y ya no tiene sentido abandonar
         G                 Em
  ya no tiene sentido abandonar
              Em      G      Em      G      Em      G      Em      G
  oh, oh, oh, no late el corazón.

            
            
Suggest correction
Creating personal tab
Creating personal tab
You can edit any tab online and save it as your Personal.

You can edit, replace or remove any tab part or add personal notes – all changes will be seen only by you.

Personal tabs can be accessed anytime from any device, even offline.
Learn more »
Give kudos to tab author, rate the tab!
1 2 3 4 5
comments
print report bad tab
guest
Wanna post a correction for this tab? Suggest correction