Oops, an error
Loading. Please wait.

Bendecida tab

version 3
version 3

Whole song

Interactive

95 views 1 this week
no commentswrite comment
1 2 3 4 5
3 more votes to show rating
add to favorites
×
Save as Personal and add changes to this tab that will be seen only by you. Learn more ›
×
You can save this tab as Personal to edit and correct it or add notes. All changes will be seen only by you. Learn more »
launch autoscroll
font size
0
reset
how to read this tab
guitar tuner
edit
Autoscroll
slow
fast
+/-
esc
set tempo
stop
Soy de León Gto espero sus dudas o aclaraciones
Mi email:elnanoel_@
Tranquision para guitarristas dobles, como solista
puedes sacar esta Rola


E--------------------------1--1----------5----
B------------------------3---3----------------
G--------------------------------------5------
D---------------------------------------------
A-------3-3/--5--------0---------------0------
E---------------------------------------------


-------------------------------5d-----3-
5-------------------------3d------1-----
----5----3/4------3--3------------------
---------------3---3--------------------
----------------------------------------
----------------------------------------
RIFF 1 Se repite 2 veces


E--------------------------------------5-------
B-------------------------5--5-----------------
G-----------------------6--6----------5--------
D----------------------------------------------
A------3-3/--5---------0--------------0--------
E----------------------------------------------

-------------------------------------
5------------------------------------
-----5----------------------7d-----5d
-------------------8--8-----7d-----5d
-------------------8--8--------------
----------5/6------------------------
RIFF 2  Se repite 2 veces
terminar en el riff 3


E---5/6/5---------------------
B------------7--5-------------
G------------------7---5------
D------------------------7---5
A-----------------------------
E-----------------------------
RIFF 3, 1 vez se toca

Nota:
de aquí se tocan todos los riff hasta llegar
halos acordes
/ significa q solo arrastras
d: significa q tocas las dos cuerdas a la
vez sea
con plumilla o con dedos
Los riff 1,2,3 se vuelven a tocar terminan
empezando el rasgueo


Cuando aún te espero llegar...
Un ataúd guardo tu tacto y
Una corona
Con tu pelo enmarañado
Queriendo encontrar un
arco-iris infinito
Nota: hasta aquí termina los riff empieza con
el rasgueo


aqui empieza asi
Se hace 2 veces 1 lira rasgueando
2 lira arpegiando

D-F#m-G-D-A

E-----------2--0--2/---5
B--3--2--3--------------
G-----------------------
D-----------------------
A-----------------------
E-----------------------


RIFF 2 tócalo 4 veces
las 2 liras hasta

E--------------------------------------5-------
B-------------------------5--5-----------------
G-----------------------6--6----------5--------
D----------------------------------------------
A------3-3/--5---------0--------------0--------
E----------------------------------------------

-------------------------------------
5------------------------------------
-----5----------------------7d-----5d
-------------------8--8-----7d-----5d
-------------------8--8--------------
----------5/6------------------------


ESTO 2 veces
1 lira Rasgea
2 lira arpegea

D            F#m         G
  no se distinguir entre besos y
       D    A
raices
D            F#m            G
  no se distinguir lo complicado
             A
de lo simple
         D      A


E-----------2--0--2/---5
B--3--2--3--------------
G-----------------------
D-----------------------
A-----------------------
E-----------------------

Nota: Aora esto 2 veces mas
1 lira arpegea
2 lira rasgea

y ahora estas en mi lista de
 D            F#m         G

promesas a olvidar
       D         A
todo arde si le aplicas la chispa
  D            F#m            G

adecuada
    D           A
E-----------2--0--2/---5
B--3--2--3--------------
G-----------------------
D-----------------------
A-----------------------
E-----------------------

AORA
NOTA:
Son 4 rasgueos con todo y cuando entra el bajo
Aquí las 2 liras rasguean

se tocan los siguientes acordes
Acordes: se tocan de la siguiente manera


E---5  E---3    E---1   E---1   E---3    E---5
B---5  B---3    B---1   B---1   B---3    B---5
G---5  G---5    G---3   G---3   G---5    G---5
D---7  D---5    D---3   D---3   D---5    D---7
A---7  A---3    A---1   A---1   A---3    A---7
E---5  E---3    E---1   E---1   E---3    E---5

Desde aquí empieza el arpegio
NOTA: en estos versos empiezas arpegiando
con el riff 2,
lo haces cuatro veces
1 lira riff 1
2 lira riff 2


El fuego que es a veces propio
La ceniza siempre ajena
Blanca esperma resbalando por
LA espina dorsal


Ya somos más viejos y sinceros
Y qué más da
SI miramos LA "laguna"
Como llaman a la eternidad
De la ausencia


NOTA: Ahora repitan esto, como ya lo hicieron anteriormente
esto se hace 2 veces
D            F#m         G
  no se distinguir entre besos y
       D    A
raices
D            F#m            G
  no se distinguir lo complicado
             A
de lo simple
         D      A


E-----------2--0--2/---5
B--3--2--3--------------
G-----------------------
D-----------------------
A-----------------------
E-----------------------

Nota: Aora esto 2 veces mas
1 lira arpegea
2 lira rasgea

y ahora estas en mi lista de
 D            F#m         G

promesas a olvidar
       D         A
todo arde si le aplicas la chispa
  D            F#m            G

adecuada
    D           A
E-----------2--0--2/---5
B--3--2--3--------------
G-----------------------
D-----------------------
A-----------------------
E-----------------------


Esto es el final
Las 2 liras deben rasguear estos acordes
Esto se hace 3 veces finalizando la rola

E---1----      E-----     E---1     E---3
B-------3      B--1--     B---1     B---3
G----2---      G---2      G---3     G---5
D--------      D----2     D---3     D---5
A--------      A-----     A---1     A---3
E--------      E-----     E---1     E---3

            
            
Suggest correction
Creating personal tab
Creating personal tab
You can edit any tab online and save it as your Personal.

You can edit, replace or remove any tab part or add personal notes – all changes will be seen only by you.

Personal tabs can be accessed anytime from any device, even offline.
Learn more »
Give kudos to tab author, rate the tab!
1 2 3 4 5
comments
print report bad tab
guest
Wanna post a correction for this tab? Suggest correction