Oops, an error
Loading. Please wait.

Chispa Adecuada (Rarezas) bass

version 1
version 1

Whole song

189 views 1 this week
no commentswrite comment
1 2 3 4 5
3 more votes to show rating
add to favorites
×
Save as Personal and add changes to this tab that will be seen only by you. Learn more ›
×
You can save this tab as Personal to edit and correct it or add notes. All changes will be seen only by you. Learn more »
launch autoscroll
font size
0
reset
guitar tuner
edit
Autoscroll
slow
fast
+/-
esc
set tempo
stop
Que ondas soy alejandro y esta es la tab de 
la chispa adecuada, esta muy facil, lo unico de mal pez
es que el bajo no hace casi nada, bueno la afinacion
es normal (G D A E), BUENO SUERTE.


pues el bajo en tra en el minuto 1:33 haciendo esto:
G----------------------
D----------------------   (x2)
A-2/5--5/2-------------        
E---------2/33--3/55---

luego vuelbe a entrar en el minuto 2:24 haciendo esto:
G----------------------
D----------------------   (x4)
A-2/5--5/2-------------        
E---------2/33--3/55---

luego viene la parte que no hay voz y el bajo entra un 
un circulo despues de cuando una guitarra hace una nota
y jala el tremulo, y hace el solo ese bajo del minuto
3:15 al 3:32, aqui esta el solo, esta muy corto y muy 
facil:
G--------11-------------------11--
D-0-1212----12--------------------
A--------------14-12--10/12-------
E---------------------------------

G----------11------------------11--------
D-0-12-1212--12-------------------12-----
A--------------14--1412-10-12------------
E----------------------------------------

luego de este solo no hay bajo hasta el minuto 4:05 y 
hace esto:
G-------------
D-------------
A-5--3--2--3--  (x4)
E-------------

y luego ya que terminen esto luego luego en el minuto
4:39 que es mas rapido hace esto:

G------------------------------------------
D------------------------------------------
A-555-55555-------------------------------- 
E-----------222-22222-333-33333-555-55555--

hasta que se acabe.

            
            
Suggest correction
Creating personal tab
Creating personal tab
You can edit any tab online and save it as your Personal.

You can edit, replace or remove any tab part or add personal notes – all changes will be seen only by you.

Personal tabs can be accessed anytime from any device, even offline.
Learn more »
Give kudos to tab author, rate the tab!
1 2 3 4 5
comments
print report bad tab
guest
Wanna post a correction for this tab? Suggest correction