Oops, an error
Loading. Please wait.

Decadencia tab

version 1
version 1

Whole song

Interactive

154 views 1 this week
no commentswrite comment
1 2 3 4 5
2 more votes to show rating
add to favorites
×
Save as Personal and add changes to this tab that will be seen only by you. Learn more ›
×
You can save this tab as Personal to edit and correct it or add notes. All changes will be seen only by you. Learn more »
launch autoscroll
font size
0
reset
how to read this tab
guitar tuner
edit
Autoscroll
slow
fast
+/-
esc
set tempo
stop
Intro:
E |---------0----------------3-3-----------0----------3----
B |------------------------------3----------------------3--
G |-----7-----7----------5-------------7-----7-------------
D |-------7-----7----------5-------------7-----7-----------
A |--5------------5\0-3-------------5------------5\3-------
E |--------------------------------------------------------


E |-------------0--------------3-3----------0----------3---
B |--------------------------------3---------------------3-
G |--5/7----7----7----------5------------7----7------------
D |-----------7----7----------5-----------7-----7----------
A |------5-----------5\0-3------------5-----------5/3------
E |--------------------------------------------------------


E |-------|------------------------------------------------
B |-------|------------------------------------------------
G |--5/7--|------------------------------------------------
D |-------|---7-5---8-7-5-7-----7-5---8-7-5-7-----7-5---8-7
A |-------|-5-----8-----------5-----8-----------5-----8----
E |-------|------------------------------------------------


E |--------------------------------------------------------
B |--------------------------------------------------------
G |--------------------------------------------------------
D |--5-7-----7-5---8-7-5-7-----7-5---8-7-5-7-----7-5---8-7-
A |--------5-----8-----------5-----8-----------5-----8-----
E |--------------------------------------------------------


E |--------------------5-----------------7---|
B |------------------------------------------|
G |----------------------7-----------------5-|
D |--5-7-----7-5---8-7---------7-5---8-7-----|
A |--------5-----8-----------5-----8---------|
E |------------------------------------------|


Puente:
   (ahora con distorción)
E |----------------------------------------------------
B |----------------------------------------------------
G |--7-7-7-7-7-7---7-7-7-7\5---5-7-7-7-7-7-7-5-5-------(x2)
D |--7-7-7-7-7-7---7-7-7-7\5---5-7-7-7-7-7-7-5-5-5/7-7-
A |--5-5-5-5-5-5---5-5-5-5\3---3-5-5-5-5-5-5-3-3-5/7-7-
E |----------------------------------------------3/5-5-


Verso:
E |----------------------------------------------------
B |----------------------------------------------------
G |--7---7-7-7-----------7---7-7-7---------------------(x2)
D |--7---7-7-7-8---8-8-8-7---7-7-7-8-8---5/7--5--------
A |--5---5-5-5-8---8-8-8-5---5-5-5-8-8-----------8--5--
E |------------6---6-6-6-----------6-6-----------------


E |----------------------------------------------------
B |----------------------------------------------------
G |--7-7-7-7-7-7---7-7-7-7\5---5-7-7-7-7-7-7-5-5-------
D |--7-7-7-7-7-7---7-7-7-7\5---5-7-7-7-7-7-7-5-5-5/7-7-
A |--5-5-5-5-5-5---5-5-5-5\3---3-5-5-5-5-5-5-3-3-5/7-7-
E |----------------------------------------------3/5-5-


E |--------------|-----------------------------------------
B |--------------|-----------------------------------------
G |--------------|-----------------------------------------
D |--5-----5/7---|--10-10-10-10-10-10-10-10-10-10-10-7-7-7-
A |--5-----5/7---|---8--8--8--8--8--8--8--8--8--8--8-7-7-7-
E |--3-----3/5---|-----------------------------------5-5-5-


E |--------------------------------------------------------
B |--------------------------------------------------------
G |-------5---8--------------------------------------------
D |--7-7---------5-----------------------------------------
A |--7-7---------------------------------------------------
E |--5-5---------------------------------------------------


*REGRESA AL PUENTE con distorción
Adicional después del puente va este FILL IN:
E |---------------------
B |--10~^/8-------------
G |----------10~^-7-----
D |---------------------
A |---------------------
E |---------------------


*TOCAR:
       VERSO

Estribillo:
E |---------------
B |---------------
G |--7---7-7---7-- (x4)
D |--7---7-7---7--
A |--5---5-5---5--
E |---------------


E |-------------------13-12----------------------12/13-13~^
B |-----11----13----11------10-----11----13----11----------
G |--14----14----14--------------14----14----14------------
D |--------------------------------------------------------
A |--------------------------------------------------------
E |--------------------------------------------------------


E |-------------------13-12--------------------------------
B |-----11----13----11------10------11----13~^13-11--------
G |--14----14----14-------------14----14-----------14-12-14
D |--------------------------------------------------------
A |--------------------------------------------------------
E |--------------------------------------------------------


E |-------------------------------
B |-------------------------------
G |-------------------------------   AHORA VIENE EL SOLO
D |-------------------------------   DE BAJO
A |--15--14-12~^(mantener nota)---
E |-------------------------------

  
   DESPUES:
E |----------------------------      ----------------------
B |----------------------------      -6--------------6-----
G |--7--------7-----7--------7- (x2) ----7--------------7--
D |-----7--------------7-------      -------7--------------
A |--------5--------------5----      ----------5-----------
E |----------------------------      ----------------------


E |----------
B |----------
G |----------
D |--7------- (Repetir todo esto como unas 2 veces también)
A |-----5----
E |----------


OUTRO (lead con un poco de distorción):
E |---------------13-12----------13---------------------13-
B |----------------------13---------13---------------------
G |--14~^---14/15-----------12~^-----------14~^---14/15----
D |--------------------------------------------------------
A |--------------------------------------------------------
E |--------------------------------------------------------


E |--12-------------------------------13-12----------13----
B |------13-------13-------------------------13---------13-
G |---------12~^---------14~^---14/15-----------12~^-------
D |--------------------------------------------------------
A |--------------------------------------------------------
E |--------------------------------------------------------


E |---------------13-12---------------
B |----------------------13-------13--
G |--14~^---14/15-----------12~^------
D |-----------------------------------
A |-----------------------------------
E |-----------------------------------


*TOCAR:
       PUENTE
       VERSO
       PUENTE


Esta canción me costó un poco sacarla pero bueno, aquí la tienen,
ojalá que les guste y les sirva!
Suggest correction
Creating personal tab
Creating personal tab
You can edit any tab online and save it as your Personal.

You can edit, replace or remove any tab part or add personal notes – all changes will be seen only by you.

Personal tabs can be accessed anytime from any device, even offline.
Learn more »
Give kudos to tab author, rate the tab!
1 2 3 4 5
comments
print report bad tab
guest
Wanna post a correction for this tab? Suggest correction