Oops, an error
Loading. Please wait.

Decadencia bass

version 3
version 3

Whole song

Interactive

143 views 3 this week
no commentswrite comment
1 2 3 4 5
3 more votes to show rating
add to favorites
×
Save as Personal and add changes to this tab that will be seen only by you. Learn more ›
×
You can save this tab as Personal to edit and correct it or add notes. All changes will be seen only by you. Learn more »
launch autoscroll
font size
0
reset
guitar tuner
edit
Autoscroll
slow
fast
+/-
esc
set tempo
stop
XD

Intro:

G:-----------------------------------------------------
D:---0-----0----------0------0-0-0-0-0-0-0-0-0-0-0-0-0-
A:-----------------------------------------------------
E:--------------10/0-----------------------------------

G:-----------
D:0-0-0-0-0-0
A:-----------   (no se cuantas veces XD )
E:-----------

cuando entra la bateria:

G:----------------------------------------
D:----------------------------------------
A:-5-5-5-5-5-5-3-3-3-3-5-5-5-5-5-5-3-3-3-3
E:----------------------------------------

G:--------------------
D:--------------------
A:-5-5-5-5-5-5-3-3-3-3
E:--------------------

Verso:

  La decadencia...en tu mente

G:---------------------------------
D:---------------------------------
A:-5-5-5-5-5-5-5-5--3-3-3-3-3-0-1-3
E:---------------------------------

   El templo del sooool estayoooooooooo
G:-------------------------------------
D:-------------------------------------
A:--------------------------3-3-3-3-3-3
E:3-3-3-3-3-3-3-3-3-3-3-3-3------------

   Nunca podre saber si la cruz es salvacioooon
G:---------------------------------------------
D:-----------10--10--10------------------------
A:-3-3-3-3/8----8---8---8/3-3-3-3-3-3-3-3-5-5-5
E:---------------------------------------------

intro.

   Por momennnntos, por momennntos, por momentoos
G:------------------------------------------------
D:-0-0-0-0-0-0-3-3-3-3-3-3-3-0-0-3-3-3-3-3-0-0-0-0
A:------------------------------------------------
E:------------------------------------------------


   Por momennnnnnnntooooooooos
G:----------------------------
D:-0-0-0-0-0-0-0-0-0*---------  (*=dejar sonar)
A:----------------------------
E:----------------------------


durante el solo de guitarra hay que hacer la intro.

Solo de bajo:

G:---------------------------0-2-3---------------
D:--0-0-2-2-3-3-2-2----2-2-3------0-0-2-2-3-3-2-2
A:0-----------------1-1--------------------------
E:-----------------------------------------------

G:------------|-----------------------0-2-3|
D:-3-2-0-0----|-0-0-0-0-0-0-0-0-0-0-0------|
A:---------3-3|----------------------------|
E:------------|----------------------------|

(lo que esta entre | |, se repite mientras que
bunbury dice..."oh ooh oh oh")

Intro, verso.


Bueno, ojalá q les guste  :=)
q bueno q se reunan los heroes, pero
me gustaría q vinieran a chile XD

bueno chau.

            
            
Suggest correction
Creating personal tab
Creating personal tab
You can edit any tab online and save it as your Personal.

You can edit, replace or remove any tab part or add personal notes – all changes will be seen only by you.

Personal tabs can be accessed anytime from any device, even offline.
Learn more »
Give kudos to tab author, rate the tab!
1 2 3 4 5
comments
print report bad tab
guest
Wanna post a correction for this tab? Suggest correction