Oops, an error
Loading. Please wait.

Deshacer El Mundo tab

version 3
version 3

Whole song

Interactive

224 views 1 this week
no commentswrite comment
1 2 3 4 5
3 more votes to show rating
add to favorites
×
Save as Personal and add changes to this tab that will be seen only by you. Learn more ›
×
You can save this tab as Personal to edit and correct it or add notes. All changes will be seen only by you. Learn more »
launch autoscroll
font size
0
reset
how to read this tab
guitar tuner
edit
Autoscroll
slow
fast
+/-
esc
set tempo
stop
Deshacer el mundo
Heroes del silencio
por: Ramón Zamora

Solo de guitarra

... mirad mis alas...

E|----------------------------------------------------|------------------------
A|--------------------------------------------7/8--8--|--5~-3/5--8----------8--
D|--------------------------------8--7--8--7----------|-------------5--7p5-----
G|--m5--m5--m5--m5--5--5--5---m5----------------------|------------------------
B|----------------------------------------------------|------------------------
e|----------------------------------------------------|------------------------

E|------------------------------|-------------------------------------------------
A|--5--3--3/5-------------------|-------------------------------------------------
D|-------------7-------------7--|-----------------7-------------------------------
G|----------------5--5--7p5-----|--7b9--5b7--7p5-----5--7-------------------------
B|------------------------------|--------------------------5--6--8/10-------------
e|------------------------------|--------------------------------------8--10--10--

E|------------------------------|--------------------------------------------------|
A|------------------------------|-------------------------------------------------8|
D|------------------------------|----------------------------------------------5---|
G|-----------------------10--9--|--12-------------------------12--10--9/10--5------|
B|-----10-----10--8--10---------|------13-----------------13-----------------------|
e|--8------8--------------------|----------12/13--13p12----------------------------|

E|---------------------------------------------|--/6~~---m5--m6--------------------
A|--*7~~/5/7--5h7---------------------------8--|-----------------m8----------------
D|-----------------5--7---------------7--5-----|---------------------m8------------
G|-----------------------4--5--4h5p4-----------|-------------------------7p5h7p5---
B|---------------------------------------------|------6----------------------------
e|---------------------------------------------|------6----------------------------

E|---------------------m8--5--|--6~~m5--m6--------------------------------m8--m5--|
A|---------m7--m8--m7---------|-------------m8--------------------m7--m8----------|
D|--8--7----------------------|-----------------m8-----------8-7------------------|
G|----------------------------|---------------------7p5h7p5-----------------------|
B|----------------------------|---------------------------------------------------|
e|----------------------------|---------------------------------------------------|

E|-----5-----------------------------------8--5--|-----5--------------------------
A|--5~~---5-----------------------------8--------|--5-----5-----------------------
D|-----------7--------------------8--7-----------|-----------7--------------------
G|--------------7-----------7--7-----------------|--------------7-----------7-----
B|-----------------6p5h6p5-----------------------|-----------------6p5h6p5-----5--
e|-----------------------------------------------|--------------------------------

E|------------------------|-------------------------------------------------------
A|------------------------|-------------------------------------------------------
D|------------------------|-------------------------------------------------------
G|---------------7--------|----------------------------------------------------7--
B|--6--8--5h6p5-----5--6--|-------------8-----------------8--------8-----8--6-----
e|------------------------|--5/6--6--5-----5--6--8--6--5-----6--5-----5-----------

E|------------------|-------------------------------------------------------------
A|------------------|-------------------------------------------------------------
D|------------------|--8--5--7--8-------------------------------------------------
G|--------------10--|--------------5--7--8----------------------------------------
B|--6--8/10--8------|-----------------------6--8--10------------------------------
e|------------------|---------------------------------6--8--10--12--13--15--13--15

E|------------------|---------------------------------------------------
A|------------------|---------------------------------------------------
D|------------------|---------------------------------------------------
G|------------------|---------------------------------------------------
B|------------------|---------------------------------------------------
e|--13h15p13p12h12--|--15b17--17h18p17p15h17--18--20--17h18p17--15----
                      (chorus o flanger............................

E|------------------------------------------------------------------------|
A|------------------------------------------------------------------------|
D|------------------------------------------------------------17--15--14--|
G|------------------------------------------------17--15--14--------------|
B|------------------------------------18--17--15--------------------------|
e|--15w17w15w17w15w17w15--18--17--15--------------------------------------|
    ....................)(fase..........................................)

... te he dicho que no miras atrás...

Simbología
m - muted, o sea tapar un poco la vibración de la cuerda poniendo el canto de la mano
    derecha sobre el trémolo.
/ - slide, deslizar desde/hasta
p - pull off
b - bending
* - armónico
h - hammer on

también se indican los pedales de efectos que lleva además de la distorsión

este requinto es el claro ejemplo de que lo bueno no tiene que ser forzosamente
difícil; cualquier duda o aclaración, o si quieren algún otro tab mail a 
mandelbort@

Ramón Zamora
Suggest correction
Creating personal tab
Creating personal tab
You can edit any tab online and save it as your Personal.

You can edit, replace or remove any tab part or add personal notes – all changes will be seen only by you.

Personal tabs can be accessed anytime from any device, even offline.
Learn more »
Give kudos to tab author, rate the tab!
1 2 3 4 5
comments
print report bad tab
guest
Wanna post a correction for this tab? Suggest correction