Oops, an error
Loading. Please wait.

Deshacer El Mundo bass

version 1
version 1

Whole song

Interactive

225 views 1 this week
no commentswrite comment
1 2 3 4 5
3 more votes to show rating
add to favorites
×
Save as Personal and add changes to this tab that will be seen only by you. Learn more ›
×
You can save this tab as Personal to edit and correct it or add notes. All changes will be seen only by you. Learn more »
launch autoscroll
font size
0
reset
guitar tuner
edit
Autoscroll
slow
fast
+/-
esc
set tempo
stop
No tiene Intro comienza en el verso:

                  Dm
G|-------------------------------------
D|-------------------------------------
A|--3H5555-3H5555-3H5555-3H5555-3H5555-
E|-------------------------------------

            C
G|-----------------------
D|-----------------------
A|--5H3333-5H3333-5H3333-
E|-----------------------

            A5
G|-----------------------
D|-----------------------
A|-----------------------
E|--5555-5555H6-5555H6---


                 Dm
G|-------------------------------------
D|-------------------------------------
A|--3H5555-3H5555-3H5555-3H5555-3H5555-
E|-------------------------------------


             C
G|-----------------------
D|-----------------------
A|--5H3333-5H3333-5H3333-
E|-----------------------


            A#
G|-----------------------
D|-----------------------
A|-----------------------
E|--6666-5H6666-5H6666---


                  Dm
G|-------------------------------------
D|-------------------------------------
A|--3H5555-3H5555-3H5555-3H5555-3H5555-
E|-------------------------------------


            A#
G|-----------------------
D|-----------------------
A|-----------------------
E|--6666-5H6666-5H6666---


            Am
G|-----------------------
D|-----------------------
A|-----------------------
E|--5555-5555H6-5555H6---


Coro:

    Dm      F       A#      Am
G|---------------------------------
D|---------------------------------
A|--5555555-----------------0000000
E|----------1111111-6666666--------


(EN EL VERSO SIGUIENTE LO MISMO QUE EN EL PRIMERO)

DESPUES DEL SEGUNDO CORO:

    F    F
G|-----------
D|-----------  (/= Slide Down)
A|--8/1--8/1-
E|-----------


Luego la parte:
"y ponme fuera del alcance del bostezo universal"

    F  Am Dm A# C
G|----------------
D|----------------
A|--------5-----3-
E|--1--5-----6----

    Dm A5 A# F  C
G|----------------
D|----------------
A|--5-----------3-
E|-----5--6--1----

    Dm A5 A# F  C
G|----------------
D|----------------
A|--5-----------3-
E|-----5--6--1----


    F  Am Dm A# C
G|----------------
D|----------------
A|--------5-----3-
E|--1--5-----6----


CORO IGUAL.

            
            
Suggest correction
Creating personal tab
Creating personal tab
You can edit any tab online and save it as your Personal.

You can edit, replace or remove any tab part or add personal notes – all changes will be seen only by you.

Personal tabs can be accessed anytime from any device, even offline.
Learn more »
Give kudos to tab author, rate the tab!
1 2 3 4 5
comments
print report bad tab
guest
Wanna post a correction for this tab? Suggest correction