Oops, an error
Loading. Please wait.

Despertar bass

version 1
version 1

Whole song

Interactive

79 views 1 this week
no commentswrite comment
1 2 3 4 5
3 more votes to show rating
add to favorites
×
Save as Personal and add changes to this tab that will be seen only by you. Learn more ›
×
You can save this tab as Personal to edit and correct it or add notes. All changes will be seen only by you. Learn more »
launch autoscroll
font size
0
reset
guitar tuner
edit
Autoscroll
slow
fast
+/-
esc
set tempo
stop
INTRO   [ A D ] (X2)

  A  (X4)   D   (X4)
G|--------||--------|
D|°------°||°------°|
A|°-0-00-°||°-5-55-°|
E|--------||--------|

VERSO
  A
  ¿ Quien nos devora,
G|-------------------|
D|-------------------|
A|-------------------|
E|-5---5-5---5---5-5-|

                            D
  que una pesadilla me parte en dos ?
G|------------------------------------|
D|------------------------------------|
A|-------------------------5---5-5---5|
E|-5---5-5---5---5-5----5-------------|

                A
¿ Tanto odio encontró
G|----------------------|
D|----------------------|
A|-5---5-5---5----------|
E|--------------5---5-5-|

           D                
en la melodia que ahoga mi voz ?
G|------------------------------|
D|------------------------------|
A|---------5---5-5---5---5-5----|
E|5---5-5-----------------------|

CORO
  C#m         F#m   C#m    D
   Todo se olvida al despertar
G|------------------------------|
D|------------------------------|
A|-4--4--------------4-----5----|
E|------------2-----------------|

         F#m C#m D
una vez más
G|-----------------|
D|-----------------|
A|------------4--5-|
E|-------2---------|

            E
solo puedo soñar
G|--------------------|
D|--------------------|
A|----------7---7--7--|
E|--------------------|

  entre arena y espuma

  E               A   (X4)  D   (X4)  A   (X4) D   (X4)
G|-------------||--------||--------||--------||--------|
D|-------------||°------°||°------°||°------°||°------°|
A|-------------||°-0-00-°||°-5-55-°||°-0-00-°||°-5-55-°|
E|7---7-7---7--||--------||--------||--------||--------|

VERSO 2
A
¿ Como puedo olvidar
G|-------------------|
D|-------------------|
A|-------------------|
E|-5---5-5---5---5-5-|

  D                               A
a alguien que un dia me quiso ayudar ?
G|-----------------------------------------|
D|-----------------------------------------|
A|-5---5-5---5---5---5-5---5---5-----------|
E|---------------------------------5---5-5-|

si no se perdonar
G|-------------------|
D|-------------------|
A|-------------------|
E|-5---5-5---5---5-5-|


    D                             
el daño que has hecho a mi alrededor...
G|--------------------------------|
D|--------------------------------|
A|5---5-5---5---5-5---5---5-5---5-|
E|--------------------------------|

CORO
  C#m         F#m   C#m    D
   Todo se olvida al despertar
G|------------------------------|
D|------------------------------|
A|-4--4--------------4-----5----|
E|------------2-----------------|

         F#m C#m D
una vez más
G|-----------------|
D|-----------------|
A|------------4--5-|
E|-------2---------|

            E
solo puedo soñar
G|--------------------|
D|--------------------|
A|----------7---7--7--|
E|--------------------|

  entre arena y espuma
  E               A   (X4)  D   (X4)  
G|-------------||--------||--------|
D|-------------||°------°||°------°|
A|-------------||°-0-00-°||°-5-55-°|
E|7---7-7---7--||--------||--------|

  entre arena y espuma
  E               A   (X4)  D   (X4)  
G|-------------||--------||--------|
D|-------------||°------°||°------°|
A|-------------||°-0-00-°||°-5-55-°|
E|7---7-7---7--||--------||--------|

SOLO [ B  E  B  E ]
G|----------------------------------------|(X2)
D|°--------------------------------------°|
A|°-2---2-2---2---2-2---7---7-7---7---7-7°|
E|----------------------------------------|

  D#m        G#m     D#m   E
  todo se olvida al despertar
G|------------------------------|
D|------------------------------|
A|-6--6--------------6-----7----|
E|------------2-----------------|

         G#m  D#m  E
una vez más
G|------------------|
D|------------------|
A|-------------6--7-|
E|-------2----------|

            F#
solo puedo soñar
G|-------------|
D|-------------|
A|-------------|
E|-----------2-|

             D#m
entre arena y...
G|-------------|
D|-------------|
A|-------------|
E|-----------6-|

           G#m     D#m   E
todo se olvida al despertar
G|------------------------------|
D|------------------------------|
A|-6----------------6-----7----|
E|-----------2-----------------|

         G#m  D#m  E  B
una vez más
G|-----------------------|
D|-----------------------|
A|-----------6-----7---2-|
E|--------2--------------|

          F#                      B
solo puedo soñar... entre arena y espuma.
G|-----------------------------------|
D|-----------------------------------|
A|--------------------------------(2)|
E|2---2--2---2---2--2---2---2--2-----|


======================================================================
ATAME...Es un archivo de la RAZA y para la RAZA asi que manden tabs de BAJO
Suggest correction
Creating personal tab
Creating personal tab
You can edit any tab online and save it as your Personal.

You can edit, replace or remove any tab part or add personal notes – all changes will be seen only by you.

Personal tabs can be accessed anytime from any device, even offline.
Learn more »
Give kudos to tab author, rate the tab!
1 2 3 4 5
comments
print report bad tab
guest
Wanna post a correction for this tab? Suggest correction