Oops, an error
Loading. Please wait.

Despertar tab

version 3
version 3

Whole song

Interactive

20 views 1 this week
no commentswrite comment
1 2 3 4 5
3 more votes to show rating
add to favorites
×
Save as Personal and add changes to this tab that will be seen only by you. Learn more ›
×
You can save this tab as Personal to edit and correct it or add notes. All changes will be seen only by you. Learn more »
launch autoscroll
font size
0
reset
how to read this tab
guitar tuner
edit
Autoscroll
slow
fast
+/-
esc
set tempo
stop
Es siempre la misma rueda y el arpegio es siempre igual. 
Lo he sacado del disco pirata de Héroes 'Acoustic' que se 
percibe claramente la movida que lleva la canción.


   LA                          RE

  [----------------]          [----------------]
  [-0--------------]          [----------------]
  [-2-----------2--]          [-0-----------0--]
  [----2-----2-----] (x4)     [-2--2-----2-----]  (x4)
  [-------2--------]          [-------3--------]
  [----------------]          [----------------]

Repetir 2 veces las dos figuras de arriba


   DO#m                         FA#m
  [----------------]          [----------------]
  [----------------]          [-4--------------]
  [-6--------------]          [-4-----------4--]
  [-6-----------6--]  (x2)    [----2-----2-----] (x2)
  [----5-----5-----]          [-------2--------]
  [-------4--------]          [----------------]

   MI                           RE
  [----------------]          [----------------]
  [-2--------------]          [----------------]
  [-2-----------0--]          [-0--------------]
  [----1-----1-----]  (x2)    [-2-----------2--]  (x1)
  [-------0--------]          [----3-----3-----]
  [----------------]          [-------2--------]


Este es el rollo de toda la canción, pese a que también se puede 
hacer tocando los akordes  simplemente si no quieres complicarte deamsiado.

LA                                            RE
¿Quién nos devora, que una pesadilla me parte en dos?
    
                  LA                  RE
¿tanto odio encontró en la melodía uhhhh que ahoga mi 


voz?

Estribillo:

DO#m                     FA#m
Todo se olvida al despertar

            MI
una vez más 

               RE
solo puedo soñar

              LA
entre arena y espuma


LA                                 RE
¿cómo puedo olvidar alguien que un día me quiso ayudar?

             LA                        RE
si no se perdonar el daño que has hecho a mi 


alrededor...


+ Estribillo


Un saludo a todos los fans de Héroes en especial a Rodry. Que os vaya bonito!!.
Suggest correction
Creating personal tab
Creating personal tab
You can edit any tab online and save it as your Personal.

You can edit, replace or remove any tab part or add personal notes – all changes will be seen only by you.

Personal tabs can be accessed anytime from any device, even offline.
Learn more »
Give kudos to tab author, rate the tab!
1 2 3 4 5
comments
print report bad tab
guest
Wanna post a correction for this tab? Suggest correction