Oops, an error
Loading. Please wait.

Despertar tab

version 4
version 4

Whole song

Interactive

29 views 1 this week
no commentswrite comment
1 2 3 4 5
3 more votes to show rating
add to favorites
×
Save as Personal and add changes to this tab that will be seen only by you. Learn more ›
×
You can save this tab as Personal to edit and correct it or add notes. All changes will be seen only by you. Learn more »
launch autoscroll
font size
0
reset
how to read this tab
guitar tuner
edit
Autoscroll
slow
fast
+/-
esc
set tempo
stop
E||------0--0-0--0----0----|------0--0-0--0----0----|
B||------0--0-0--0----0----|------0--0-0--0----0----|
G||------9--9-9--9----9----|------9--9-9--9----9----|
D||--9---9--9-9--9----9----|--9---9--9-9--9----9----|
A||--7---7-------7----7----|--7---7-------7----7----|
E||--0---------------------|--0---------------------|


                                                           
-----------------------------|----------------------------|
-------2-------0h2--2--------|-------2-------0h2--2--0----|
-----2----2------------2-----|-----2----2--------------2--|
--2---------2------------2---|--2---------2---------------|
---------------------------0-|----------------------------|
-----------------------------|----------------------------|


                                                          
----------------------------|----------------------------|
-------3-------2-3--3-------|-------3-------2-3--3-------|
-----2----2------------2----|-----2----2------------2----|
------------4------------4--|------------4------------4--|
--5-------------------------|--5-------------------------|
----------------------------|----------------------------|


                                                          
----------------------------|----------------------------|
-------2-------0h2--2-------|-------2-------0h2--2--0----|
-----2----2------------2----|-----2----2--------------2--|
--2---------2------------2--|--2---------2---------------|
----------------------------|----------------------------|
----------------------------|----------------------------|


                                                          
----------------------------|----------------------------|
-------3-------2-3--3-------|-------3-------2-3--3-------|
-----2----2------------2----|-----2----2------------2----|
------------4------------4--|------------4------------4--|
--5-------------------------|--5-------------------------|
----------------------------|----------------------------|


                                                                      
----------------------------------|----------------------------------|
----------------------------------|----------------------------------|
---------14-----18-----16--14-----|---------14-----18-----16--14-----|
-----14-------------14--------14--|-----14-------------14--------14--|
--0----------0--------------------|--0----------0--------------------|
----------------------------------|----------------------------------|


                                                          
----------------------------|----------------------------|
--------7-----10----8--7----|--------7-----10----8-------|
-----7-----7------7------7--|-----7-----7------7----7----|
--7-------------------------|--7----------------------7--|
----------------------------|----------------------------|
----------------------------|----------------------------|


                                                                          
------------------------------------|------------------------------------|
------------------------------------|------------------------------------|
----------14------18-----16--14-----|----------14------18-----16--14-----|
------14--------------14--------14--|------14--------------14--------14--|
--12----------12--------------------|--12----------12--------------------|
------------------------------------|------------------------------------|


                                                          
----------------------------|----------------------------|
-------3-------2-3--3-------|-------3-------2-3--3-------|
-----2----2------------2----|-----2----2------------2----|
------------4------------4--|------------4------------4--|
--5-------------------------|--5-------------------------|
----------------------------|----------------------------|


                                                              
--------------------------|---------9------------------------|
-------------5----4-------|------10----10-----------9--------|
-------6--------6----6----|--11-----------11------9----9-----|
----------6------------6--|-------------------11---------11--|
--4-----------------------|----------------------------------|
--------------------------|----------------------------------|


                                                                        
---------10---------12------10------|---------9------------------------|
------10-----10---------10------10--|------10----10-----------9--------|
--11------------11------------------|--11-----------11------9----9-----|
------------------------------------|-------------------11---------11--|
------------------------------------|----------------------------------|
------------------------------------|----------------------------------|


                                                        
------------------------------|------------------------|
------------------------------|------0--0-0--0----0----|
------------------------------|------9--9-9--9----9----|
-------11-------12h11---------|--9---9--9-9--9----9----|
--12--------12----------12----|--7---7-------7----7----|
------------------------------|--0---------------------|


                                                      
------------------------|----------------------------|
------0--0-0--0----0----|-------2-------0h2--2-------|
------9--9-9--9----9----|-----2----2------------2----|
--9---9--9-9--9----9----|--2---------2------------2--|
--7---7-------7----7----|----------------------------|
--0---------------------|----------------------------|


                                                          
----------------------------|----------------------------|
-------2-------0h2--2--0----|-------3-------2-3--3-------|
-----2----2--------------2--|-----2----2------------2----|
--2---------2---------------|------------4------------4--|
----------------------------|--5-------------------------|
----------------------------|----------------------------|


                                                          
----------------------------|----------------------------|
-------3-------2-3--3-------|-------2-------0h2--2-------|
-----2----2------------2----|-----2----2------------2----|
------------4------------4--|--2---------2------------2--|
--5-------------------------|----------------------------|
----------------------------|----------------------------|


                                                          
----------------------------|----------------------------|
-------2-------0h2--2--0----|-------3-------2-3--3-------|
-----2----2--------------2--|-----2----2------------2----|
--2---------2---------------|------------4------------4--|
----------------------------|--5-------------------------|
----------------------------|----------------------------|


                                                                  
----------------------------|------------------------------------|
-------3-------2-3--3-------|------------------------------------|
-----2----2------------2----|------14----------18-----16--14-----|
------------4------------4--|----------14----------14--------14--|
--5-------------------------|--12----------12--------------------|
----------------------------|------------------------------------|


                                                                  
------------------------------------|----------------------------|
------------------------------------|-----7--------10----8--7----|
------14----------18-----16--14-----|--------7---------7------7--|
----------14----------14--------14--|--7--------7----------------|
--12----------12--------------------|----------------------------|
------------------------------------|----------------------------|


                                                                  
----------------------------|------------------------------------|
-----7--------10----8-------|------------------------------------|
--------7---------7----7----|------14----------18-----16--14-----|
--7--------7-------------7--|----------14----------14--------14--|
----------------------------|--12----------12--------------------|
----------------------------|------------------------------------|


                                                                  
------------------------------------|----------------------------|
------------------------------------|-------3-------2-3--3-------|
------14----------18-----16--14-----|-----2----2------------2----|
----------14----------14--------14--|------------4------------4--|
--12----------12--------------------|--5-------------------------|
------------------------------------|----------------------------|


                                                        
----------------------------|--------------------------|
-------3-------2-3--3-------|-------------5----4-------|
-----2----2------------2----|-------6--------6----6----|
------------4------------4--|----------6------------6--|
--5-------------------------|--4-----------------------|
----------------------------|--------------------------|


                                                                        
---------9------------------------|---------10---------12------10------|
------10----10-----------9--------|------10-----10---------10------10--|
--11-----------11------9----9-----|--11------------11------------------|
-------------------11---------11--|------------------------------------|
----------------------------------|------------------------------------|
----------------------------------|------------------------------------|


                                                                  
---------9------------------------|------------------------------|
------10----10-----------9--------|------------------------------|
--11-----------11------9----9-----|------------------------------|
-------------------11---------11--|-------11-------12h11---------|
----------------------------------|--12--------12----------12----|
----------------------------------|------------------------------|


                                                  
------------------------|------------------------|
------0--0-0--0----0----|------0--0-0--0----0----|
------9--9-9--9----9----|------9--9-9--9----9----|
--9---9--9-9--9----9----|--9---9--9-9--9----9----|
--7---7-------7----7----|--7---7-------7----7----|
--0---------------------|--0---------------------|


                                                          
----------------------------|----------------------------|
-------2-------0h2--2-------|-------2-------0h2--2--0----|
-----2----2------------2----|-----2----2--------------2--|
--2---------2------------2--|--2---------2---------------|
----------------------------|----------------------------|
----------------------------|----------------------------|


                                                          
----------------------------|----------------------------|
-------3-------2-3--3-------|-------3-------2-3--3-------|
-----2----2------------2----|-----2----2------------2----|
------------4------------4--|------------4------------4--|
--5-------------------------|--5-------------------------|
----------------------------|----------------------------|


                                                        
---------------------------|---------------------------|
------2-------0h2--2--0----|------2-------0h2--2--0----|
---------2--------------2--|---------2--------------2--|
--2--------2---------------|--2--------2---------------|
---------------------------|---------------------------|
---------------------------|---------------------------|


                                                        
---------------------------|---------------------------|
------3-------2-3--3-------|------3-------2-3--3-------|
---------2------------2----|---------2------------2----|
-----------4------------4--|-----------4------------4--|
--5------------------------|--5------------------------|
---------------------------|---------------------------|


                                                     
------------------------|--7------------------------|
-------------4---5---7--|------7---5--4-5-4---------|
------4---6-------------|--------------------6---4--|
--4---------------------|---------------------------|
------------------------|---------------------------|
------------------------|---------------------------|


                                                    
------------------------|------4-------------------|
-------------4---5---7--|----------7--4-5-4--------|
----------4-------------|--6-----------------6--4--|
------6-----------------|--------------------------|
--7---------------------|--------------------------|
------------------------|--------------------------|


                                                     
------------------------|--7------------------------|
-------------4---5---7--|------7---5--4-5-4---------|
------4---6-------------|--------------------6---4--|
--4---------------------|---------------------------|
------------------------|---------------------------|
------------------------|---------------------------|


                                                                           
-----------------------|-------------4---------|--------------------------|
-------------5---4-----|----------5------5-----|-------------7----6-------|
----------4------------|------4----------------|-------8--------8----8----|
------6----------------|--6--------------------|----------8------------8--|
--7--------------------|-----------------------|--6-----------------------|
-----------------------|-----------------------|--------------------------|


                                       
---------11---------------------------|
------12-----12------------11---------|
--13------------13------11-----11-----|
--------------------13------------13--|
--------------------------------------|
--------------------------------------|


                                     
---------12---------14------12------|
------12-----12---------12------12--|
--13------------13------------------|
------------------------------------|
------------------------------------|
------------------------------------|


                                                                      
---------11---------------------------|------------------------------|
------12-----12------------11---------|------------------------------|
--13------------13------11-----11-----|------------------------------|
--------------------13------------13--|-------13-------14h13---------|
--------------------------------------|--14--------14----------14----|
--------------------------------------|------------------------------|


                                                              
------------------------------|------------------------------|
------------------------------|------------------------------|
-------11--11-11--11----11----|-------11--11-11--11----11----|
--11---11--11-11--11----11----|--11---11--11-11--11----11----|
--9----9----------9-----9-----|--9----9----------9-----9-----|
------------------------------|------------------------------|


                                                                  
--------------------------|---------11---------------------------|
-------------7----6-------|------12-----12------------11---------|
-------8--------8----8----|--13------------13------11-----11-----|
----------8------------8--|--------------------13------------13--|
--6-----------------------|--------------------------------------|
--------------------------|--------------------------------------|


                                     
---------12---------14------12------|
------12-----12---------12------12--|
--13------------13------------------|
------------------------------------|
------------------------------------|
------------------------------------|


                                                                      
---------11---------------------------|------------------------------|
------12-----12------------11---------|------------------------------|
--13------------13------11-----11-----|------------------------------|
--------------------13------------13--|-------13-------14h13---------|
--------------------------------------|--14--------14----------14----|
--------------------------------------|------------------------------|


                                                        
------------------------|------------------------------|
------7--7-7--7----7----|------------------------------|
------8--8-8--8----8----|-------11--11-11--11----11----|
------9--9-9--9----9----|--11---11--11-11--11----11----|
--9---9-------9----9----|--9----9----------9-----9-----|
--7---------------------|------------------------------|


                                                                       
------------------------------|--7----------------|------------------||
------------------------------|--7----------------|------------------||
-------11--11-11--11----11----|--8----------------|------------------||
--11---11--11-11--11----11----|--9----------------|------------------||
--9----9----------9-----9-----|--9----------------|------------------||
------------------------------|--7----------------|------------------||
Suggest correction
Creating personal tab
Creating personal tab
You can edit any tab online and save it as your Personal.

You can edit, replace or remove any tab part or add personal notes – all changes will be seen only by you.

Personal tabs can be accessed anytime from any device, even offline.
Learn more »
Give kudos to tab author, rate the tab!
1 2 3 4 5
comments
print report bad tab
guest
Wanna post a correction for this tab? Suggest correction