Oops, an error
Loading. Please wait.

Días De Borrasca tab

version 2
version 2

Whole song

Interactive

55 views 3 this week
no commentswrite comment
1 2 3 4 5
3 more votes to show rating
add to favorites
×
Save as Personal and add changes to this tab that will be seen only by you. Learn more ›
×
You can save this tab as Personal to edit and correct it or add notes. All changes will be seen only by you. Learn more »
launch autoscroll
font size
0
reset
how to read this tab
guitar tuner
edit
Autoscroll
slow
fast
+/-
esc
set tempo
stop
Intro
|------------------------------------------------
|------------------------------------------------
|--------6h7p6-----------------------5-----------
|----7----------7---------6------8-----5---------  x4
|--7---7----------7-----7------7-----------------
|5--------------------8------6-------------------

Con distorsión
|------------------------------------------------
|------------------------------------------------
|--------6h7p6-----------------------5-----------
|----7----------7---------6------8-----5---------  x4
|--7---7----------7-----7------7-----------------
|5--------------------8------6-------------------

después del intro x1
|5--5--5----5--5-----------------1--1--1----3---3---
|5--5--5----5--5-----------------1--1--1----3---3---
|6--6--6----6--6-----------------2--2--2----4---4---
|7--7--7----7--7--5--5--5--5-----3--3--3----5---5---
|7--7--7----7--7--7--7--7--7-----3--3--3----5---5---
|5--5--5----5--5--8--5--8--5-----1--1--1----3---3---

|5--5--5---5--5----------------6--6--6---6----5--
|5--5--5---5--5----------------7--7--7---7----6--
|6--6--6---6--6----------------8--8--8---8----7--
|7--7--7---7--7--5--5--5--5----8--8--8---8----7--
|7--7--7---7--7--7--7--7--7----6--6--6---6----5--
|5--5--5---5--5--8--5--8--5----6--6--6---6----5--

En los versos se omite una pequeña parte
|5--5--5----5--5-----------------1--1--1----3---3---
|5--5--5----5--5-----------------1--1--1----3---3---
|6--6--6----6--6-----------------2--2--2----4---4---
|7--7--7----7--7--5--5--5--5-----3--3--3----5---5---
|7--7--7----7--7--7--7--7--7-----3--3--3----5---5---
|5--5--5----5--5--8--5--8--5-----1--1--1----3---3---


|5--5--5---5--5------6--6--6---6----5--
|5--5--5---5--5------7--7--7---7----6--
|6--6--6---6--6------8--8--8---8----7--
|7--7--7---7--7------8--8--8---8----7--
|7--7--7---7--7------6--6--6---6----5--
|5--5--5---5--5------6--6--6---6----5--

VERSO 1
  al innocente lo linchan
  al son de la calumnia
  en la odisea del rencor
  el gran inquisidor
  y el hombre guarecido,
  el hombre guarecido
  en el leal, leal cobijo
  de la soledad

SOLO

VERSO 2

  la corona se prende
  después de la victoria
  esa no será la historia de mi generación
  el placer es un abismo
  el orgasmo un alivio
  contra las farsas,
  falsas de control
  de la gente mayor


CORO
 C           G#
  como si aquel instante

    D#
  fuera a ser el primero

 C           G#
  del resto de sus vidas

 F
  días de borrasca


  víspera de resplandores


PUENTE

Am                          Eb   F
  y cuando el futuro es improbable

Am                       Eb    F
  cuando pensar no es suficiente

              Eb
  y cuando aquello que en teoría

       Gm
  no puede

        Eb
  haya sucedido ...


CORO

SOLO

CORO  X2

A    Eb  Dm   x4

INTRO  X 7


El inicio y los versos son distintos y creo
que suena bien solo hay que acoplarle el ritmo
                        Chopi
Suggest correction
Creating personal tab
Creating personal tab
You can edit any tab online and save it as your Personal.

You can edit, replace or remove any tab part or add personal notes – all changes will be seen only by you.

Personal tabs can be accessed anytime from any device, even offline.
Learn more »
Give kudos to tab author, rate the tab!
1 2 3 4 5
comments
print report bad tab
guest
Wanna post a correction for this tab? Suggest correction