Oops, an error
Loading. Please wait.

El Camino Del Exceso tab

version 1
version 1

Whole song

Interactive

240 views 3 this week
no commentswrite comment
1 2 3 4 5
3 more votes to show rating
add to favorites
×
Save as Personal and add changes to this tab that will be seen only by you. Learn more ›
×
You can save this tab as Personal to edit and correct it or add notes. All changes will be seen only by you. Learn more »
launch autoscroll
font size
0
reset
how to read this tab
guitar tuner
edit
Autoscroll
slow
fast
+/-
esc
set tempo
stop
E||--------------------------------|---------------------------------|
B||--------------------------------|---------------------------------|
G||--------------------------------|-----------------0-----2-----0---|
D||--0-2-2-2-2--0-0-0-2-2-2-2--0-0-|--0-2-2-2-2--2-2---2-2---2-2---2-|
A||--------------------------------|---------------------------------|
E||--------------------------------|---------------------------------|


--------------------------------|---------------------------------|
--------------------------------|---------------------------------|
--------------------------------|-----------------0-----2-----0---|
--0-2-2-2-2--0-0-0-2-2-2-2--0-0-|--0-2-2-2-2--2-2---2-2---2-2---2-|
--------------------------------|---------------------------------|
--------------------------------|---------------------------------|


--------------------------------|---------------------------------|
--------------------------------|---------------------------------|
--------------------------------|-----------------0-----2-----0---|
--0-2-2-2-2--0-0-0-2-2-2-2--0-0-|--0-2-2-2-2--2-2---2-2---2-2---2-|
--------------------------------|---------------------------------|
--------------------------------|---------------------------------|


--------------------------------|---------------------------------|
--------------------------------|---------------------------------|
--------------------------------|-----------------0-----2-----0---|
--0-2-2-2-2--0-0-0-2-2-2-2--0-0-|--0-2-2-2-2--2-2---2-2---2-2---2-|
--------------------------------|---------------------------------|
--------------------------------|---------------------------------|


--------------------------|----------------------------|
--0-----0-----1-----1-----|--0-----0-------------------|
--------------------------|----------------0-----------|
-----2-----2-----2-----2--|-----2-----2--4---4-2-0--4--|
--------------------------|----------------------------|
--------------------------|----------------------------|


--------------------------|----------------------------|
--0-----0-----1-----1-----|--0-----0-------------------|
--------------------------|----------------0-----------|
-----2-----2-----2-----2--|-----2-----2--4---4-2-0--4--|
--------------------------|----------------------------|
--------------------------|----------------------------|


--------------------------|----------------------------|
--0-----0-----1-----1-----|--0-----0-------------------|
--------------------------|----------------0-----------|
-----2-----2-----2-----2--|-----2-----2--4---4-2-0--4--|
--------------------------|----------------------------|
--------------------------|----------------------------|


--------------------------|----------------------------|
--0-----0-----1-----1-----|--0-----0-------------------|
--------------------------|----------------0-----------|
-----2-----2-----2-----2--|-----2-----2--4---4-2-0--4--|
--------------------------|----------------------------|
--------------------------|----------------------------|


--------------------------------|---------------------------------|
--------------------------------|---------------------------------|
--------------------------------|-----------------0-----2-----0---|
--0-2-2-2-2--0-0-0-2-2-2-2--0-0-|--0-2-2-2-2--2-2---2-2---2-2---2-|
--------------------------------|---------------------------------|
--------------------------------|---------------------------------|


--------------------------------|---------------------------------|
--------------------------------|---------------------------------|
--------------------------------|-----------------0-----2-----0---|
--0-2-2-2-2--0-0-0-2-2-2-2--0-0-|--0-2-2-2-2--2-2---2-2---2-2---2-|
--------------------------------|---------------------------------|
--------------------------------|---------------------------------|


--------------------------|----------------------------|
--0-----0-----1-----1-----|--0-----0-------------------|
--------------------------|----------------0-----------|
-----2-----2-----2-----2--|-----2-----2--4---4-2-0--4--|
--------------------------|----------------------------|
--------------------------|----------------------------|


--------------------------|----------------------------|
--0-----0-----1-----1-----|--0-----0-------------------|
--------------------------|----------------0-----------|
-----2-----2-----2-----2--|-----2-----2--4---4-2-0--4--|
--------------------------|----------------------------|
--------------------------|----------------------------|


--------------------------|----------------------------|
--0-----0-----1-----1-----|--0-----0-------------------|
--------------------------|----------------0-----------|
-----2-----2-----2-----2--|-----2-----2--4---4-2-0--4--|
--------------------------|----------------------------|
--------------------------|----------------------------|


--------------------------|----------------------------|-------------------|
--0-----0-----1-----1-----|--0-----0-------------------|--3----------------|
--------------------------|----------------0-----------|--2----------------|
-----2-----2-----2-----2--|-----2-----2--4---4-2-0--4--|--0----------------|
--------------------------|----------------------------|-------------------|
--------------------------|----------------------------|-------------------|


--------------------|--------------------|---------------------------|
--1-----------------|--3--------1--------|---------------------------|
--0--------0--------|--2--------0--------|--0---0-0--0-0-0-0-0--0----|
-----------0--------|--0-----------------|--0---0-0--0-0-0-0-0--0----|
--3-----------------|-----------3--------|---------------------------|
-----------3--------|--------------------|--3---3-3--3-3-3-3-3--3----|


--------------------|---------------------------|--------------------|
--3--------1--------|---------------------------|--3--------1--------|
--2--------0--------|--0---0-0--0-0-0-0-0--0----|--2--------0--------|
--0-----------------|--0---0-0--0-0-0-0-0--0----|--0-----------------|
-----------3--------|---------------------------|-----------3--------|
--------------------|--3---3-3--3-3-3-3-3--3----|--------------------|


---------------------------|--------------------------------|
---------------------------|--------------------------------|
--0---0-0--0-0-0-0-0--0----|--------------------------------|
--0---0-0--0-0-0-0-0--0----|--0-2-2-2-2--0-0-0-2-2-2-2--0-0-|
---------------------------|--------------------------------|
--3---3-3--3-3-3-3-3--3----|--------------------------------|


---------------------------------|--------------------------------|
---------------------------------|--------------------------------|
-----------------0-----2-----0---|--------------------------------|
--0-2-2-2-2--2-2---2-2---2-2---2-|--0-2-2-2-2--0-0-0-2-2-2-2--0-0-|
---------------------------------|--------------------------------|
---------------------------------|--------------------------------|


---------------------------------|--------------------------------|
---------------------------------|--3----3----3----3----3----1----|
-----------------0-----2-----0---|--4-----------------------------|
--0-2-2-2-2--2-2---2-2---2-2---2-|--------------------------------|
---------------------------------|--------------------------------|
---------------------------------|--------------------------------|


--------------------------------|
--3----3----3----3----3----1----|
--------------------------------|
--------------------------------|
--------------------------------|
--------------------------------|


--7-12-10---------------------------------------|
----------12-10-11-10-8---10-11-10-8-10-8-------|
------------------------9-----------------9-7---|
----------------------------------------------9-|
------------------------------------------------|
------------------------------------------------|


----0---------------------------0----|--------------------------|
--------0---0---------0--------------|--0-----0-----1-----1-----|
--7---7---7---3-2-0-2---3-2-0--------|--------------------------|
------------------------------2------|-----2-----2-----2-----2--|
-------------------------------------|--------------------------|
-------------------------------------|--------------------------|


----------------------------|--------------------------|
--0-----0-------------------|--0-----0-----1-----1-----|
----------------0-----------|--------------------------|
-----2-----2--4---4-2-0--4--|-----2-----2-----2-----2--|
----------------------------|--------------------------|
----------------------------|--------------------------|


----------------------------|--------------------------|
--0-----0-------------------|--0-----0-----1-----1-----|
----------------0-----------|--------------------------|
-----2-----2--4---4-2-0--4--|-----2-----2-----2-----2--|
----------------------------|--------------------------|
----------------------------|--------------------------|


----------------------------|--------------------------|
--0-----0-------------------|--0-----0-----1-----1-----|
----------------0-----------|--------------------------|
-----2-----2--4---4-2-0--4--|-----2-----2-----2-----2--|
----------------------------|--------------------------|
----------------------------|--------------------------|


----------------------------|-------------------|--------------------|
--0-----0-------------------|--3----------------|--1-----------------|
----------------0-----------|--2----------------|--0--------0--------|
-----2-----2--4---4-2-0--4--|--0----------------|-----------0--------|
----------------------------|-------------------|--3-----------------|
----------------------------|-------------------|-----------3--------|


--------------------|---------------------------|--------------------|
--3--------1--------|---------------------------|--3--------1--------|
--2--------0--------|--0---0-0--0-0-0-0-0--0----|--2--------0--------|
--0-----------------|--0---0-0--0-0-0-0-0--0----|--0-----------------|
-----------3--------|---------------------------|-----------3--------|
--------------------|--3---3-3--3-3-3-3-3--3----|--------------------|


---------------------------|--------------------|---------------------------|
---------------------------|--3--------1--------|---------------------------|
--0---0-0--0-0-0-0-0--0----|--2--------0--------|--0---0-0--0-0-0-0-0--0----|
--0---0-0--0-0-0-0-0--0----|--0-----------------|--0---0-0--0-0-0-0-0--0----|
---------------------------|-----------3--------|---------------------------|
--3---3-3--3-3-3-3-3--3----|--------------------|--3---3-3--3-3-3-3-3--3----|


-------------------------------0-3-|--0-2-7-7-7---0-----------|
-----------------------0-3-0-3-----|------------8---8---------|
------0-2-3-2-0-2--0-2-------------|--------------------------|
--0-2------------------------------|--------------------------|
-----------------------------------|--------------------------|
-----------------------------------|--------------------------|


------------------5-3-2-0-2-0-------0-------|----------------------------|
--7-8-7-8-6-5-7-8-------------3-0-3---0-----|------0---------------------|
----------------------------------------3-2-|--0-2-----2-0---0-----------|
--------------------------------------------|--------------2---4-2-------|
--------------------------------------------|----------------------------|
--------------------------------------------|----------------------------|


--12---10-8-10--10-8-7-7--7--7-7--7-|-----0-3--5-5--5--3-3------|
------------------------------------|--8----3--5-5-------3----3-|
------------------------------------|---------------------------|
------------------------------------|---------------------------|
------------------------------------|---------------------------|
------------------------------------|---------------------------|


--3----5----3----9-----10-----|-----------------------------------|
--3--3-5--3-3--3-10----10---8-|--10-11-10-8---7-----0---0---------|
-----------------9---7-9------|-------------9---9-7---7-----0-----|
------------------------------|---------------------------7-------|
------------------------------|--------------------------------7--|
------------------------------|-----------------------------------|


---------------------------|------------------------------|
----0----0-----------------|--0------0--------------------|
--------------5-------5----|------------------------------|
---------------------------|--------------7-4-5-4-2-0-4-0-|
--7----7----7------7-----7-|------7-----7-----------------|
---------------------------|------------------------------|


----------------------------|-----------------------------|
----0----0----1------1----0-|-------0---------------------|
----------------------------|------------2----0-----------|
--2----2----2------2----2---|----2-----2----4---4-2-0-----|
----------------------------|-------------------------3-2-|
----------------------------|-----------------------------|


--------------------------|---------------------------|
--------------------------|---------------------------|
--------------------------|---------------------------|
---------2----3------3----|--2------2----3----3----2--|
--0----0----0------0----0-|-------0----0----0----0----|
--------------------------|---------------------------|


--------------------------|------------------------------|-------------------|
---------0----1------1----|--0------0--------------------|--3----------------|
--------------------------|--------------2---0-----------|--2----------------|
--2---2-----2-----2-----2-|------4-----2---4---4-2-0-----|--0----------------|
--------------------------|--------------------------3-2-|-------------------|
--------------------------|------------------------------|-------------------|


-------------------|-------------------|-------------------|-------------------|
-------------------|-------------------|-------------------|-------------------|
--0----------------|--2----------------|-------------------|--0----------------|
--0----------------|--2----------------|--4----------------|--0----------------|
-------------------|--0----------------|--4----------------|-------------------|
--3----------------|-------------------|--2----------------|--3----------------|


-------------------|-------------------|-------------------|-------------------|
--3----------------|-------------------|-------------------|--3----------------|
--2----------------|--2----------------|--0----------------|--2----------------|
--0----------------|--2----------------|--0----------------|--0----------------|
-------------------|--0----------------|-------------------|-------------------|
-------------------|-------------------|--3----------------|-------------------|


-------------------|-------------------|-------------------|-------------------|
-------------------|-------------------|-------------------|-------------------|
--0----------------|--2----------------|-------------------|--0----------------|
--0----------------|--2----------------|--4----------------|--0----------------|
-------------------|--0----------------|--4----------------|-------------------|
--3----------------|-------------------|--2----------------|--3----------------|


-------------------|-------------------|--0----2----3----5----|
--3----------------|--1----------------|--0----2----3----5----|
--2----------------|--0----------------|------------0---------|
--0----------------|-------------------|--2----4---------7----|
-------------------|--3----------------|----------------------|
-------------------|-------------------|----------------------|


--7-----7---8-----8---|--7------7-8-7-5-3-7-8-7-5--7-8-7-5-|
----------------------|------------------------------------|
----------------------|------------------------------------|
----------------------|------------------------------------|
----------------------|------------------------------------|
----------------------|------------------------------------|


--7-----7---8-----8---|--7------7-8-7-5-3-7-8-7-5--7-8-7-5-|
----------------------|------------------------------------|
----------------------|------------------------------------|
----------------------|------------------------------------|
----------------------|------------------------------------|
----------------------|------------------------------------|


--7-----7---8-----8---|--7------7-8-7-5-3-7-8-7-5--7-8-7-5-|
----------------------|------------------------------------|
----------------------|------------------------------------|
----------------------|------------------------------------|
----------------------|------------------------------------|
----------------------|------------------------------------|


--7-----7---8-----8---|--7----8----10----12----10----8----|
----------------------|-----------------------------------|
----------------------|-----------------------------------|
----------------------|-----------------------------------|
----------------------|-----------------------------------|
----------------------|-----------------------------------|


--7-7-12-------12-------12-------12-----------|
---------10-12----10-12----10-12----10------8-|
---------------------------------------12-9---|
----------------------------------------------|
----------------------------------------------|
----------------------------------------------|


--7-7-7---0---0----------------------|
--------8---8-------0---0------------|
----------------8-7---7---3-2-0------|
--------------------------------2----|
-------------------------------------|
-------------------------------------|


--12-12-17-17----17-------------14-14-14-------------|
--------------17-17-17-15----15----------15----15----|
--------------------------16----------------16----16-|
-----------------------------------------------------|
-----------------------------------------------------|
-----------------------------------------------------|


--------14----------------------------------|--------------------------------|
--------12----------------12-12-------------|--8--10-8--10-8--10-8--10-8-----|
--14-14----14-12----12-14-------12-9-7-9----|--9--9--7--9--7--9--7--9--9--7--|
-----------------14-------------------------|--------------------------------|
--------------------------------------------|--------------------------------|
--------------------------------------------|--------------------------------|


--12---10-9-10---9-7-9--7--5--3--|
---------------------------------|
---------------------------------|
---------------------------------|
---------------------------------|
---------------------------------|


--15-17-15----15----------------------------------------|
-----------17----17-15-15----15-------------11-11-11----|
--------------------------16----16-15-14-12----------12-|
--------------------------------------------------------|
--------------------------------------------------------|
--------------------------------------------------------|


------------------------------0----|---------------------------|
--10--------0----0----------8---8--|----0----0-----------------|
-----12----------------0-----------|--------------5-------5----|
--------12----12---8-7-------------|---------------------------|
-------------------------7---------|--7----7----7------7-----7-|
-----------------------------------|---------------------------|


------------------------------|----------------------------|
--0------0--------------------|----0----0----1------1----0-|
------------------------------|----------------------------|
--------------7-4-5-4-2-0-4-0-|--2----2----2------2----2---|
------7-----7-----------------|----------------------------|
------------------------------|----------------------------|


-----------------------------|--------------------------|
-------0---------------------|--------------------------|
------------2----0-----------|--------------------------|
----2-----2----4---4-2-0-----|---------2----3------3----|
-------------------------3-2-|--0----0----0------0----0-|
-----------------------------|--------------------------|


---------------------------|--------------------------|
---------------------------|---------0----1------1----|
---------------------------|--------------------------|
--2------2----3----3----2--|--2---2-----2-----2-----2-|
-------0----0----0----0----|--------------------------|
---------------------------|--------------------------|


------------------------------|-------------------|-------------------|
--0------0--------------------|--3----------------|-------------------|
--------------2---0-----------|--2----------------|--0----------------|
------4-----2---4---4-2-0-----|--0----------------|--0----------------|
--------------------------3-2-|-------------------|-------------------|
------------------------------|-------------------|--3----------------|


-------------------|-------------------|-------------------|-------------------|
-------------------|-------------------|-------------------|--3----------------|
--2----------------|-------------------|--0----------------|--2----------------|
--2----------------|--4----------------|--0----------------|--0----------------|
--0----------------|--4----------------|-------------------|-------------------|
-------------------|--2----------------|--3----------------|-------------------|


-------------------|-------------------|-------------------|-------------------|
-------------------|-------------------|--3----------------|-------------------|
--2----------------|--0----------------|--2----------------|--0----------------|
--2----------------|--0----------------|--0----------------|--0----------------|
--0----------------|-------------------|-------------------|-------------------|
-------------------|--3----------------|-------------------|--3----------------|


-------------------|-------------------|-------------------|-------------------|
-------------------|-------------------|-------------------|--3----------------|
--2----------------|-------------------|--0----------------|--2----------------|
--2----------------|--4----------------|--0----------------|--0----------------|
--0----------------|--4----------------|-------------------|-------------------|
-------------------|--2----------------|--3----------------|-------------------|


-------------------|--0----2----3----5----|----------------------------|
--1----------------|--0----2----3----5----|----------0----1-------1----|
--0----------------|------------0---------|----------------------------|
-------------------|--2----4---------7----|--2--2-2-----2----2-2-----2-|
--3----------------|----------------------|----------------------------|
-------------------|----------------------|----------------------------|


-------------------------------|----------------------------|
--0-------0--------------------|----0----0----1------1----0-|
---------------2---0-------0---|----------------------------|
-----2-2-----2---4---4-2-0---4-|--2----2----2------2----2---|
-------------------------------|----------------------------|
-------------------------------|----------------------------|


------------------------------|----------------------------|
--------0----1----------------|----------------------------|
------------------0-----------|----------------------------|
----2-2----2----4---4-2-0-----|--2-------2----3-------4----|
--------------------------3-2-|-----0-0-----0----0-0-----0-|
------------------------------|----------------------------|


------------------------------|----------------------------|
------------------------------|----------------------------|
------------------------------|----------------------------|
--2-------2----3----4----4----|--2-------2----3-------4----|
-----0-0-----0-0----0----0----|-----0-0-----0----0-0-----0-|
------------------------------|----------------------------|


------------------------------|----------------------------|
------------------------------|--0-------0----1-------1----|
------------------------------|----------------------------|
--2-------2----3----4----4----|-----2-2-----2----2-2-----2-|
-----0-0-----0-0----0----0----|----------------------------|
------------------------------|----------------------------|


-------------------------------|--------------------|---------------------|
--0-------0--------------------|--1------------1----|---------------------|
---------------2---0-----------|--0------------0----|--2----------2--2----|
-----2-2-----2---4---4-2-0-----|--------------------|--2----------2--2----|
---------------------------3-2-|--3------------3----|--0----------0--0----|
-------------------------------|--------------------|---------------------|


---------------------|--0----2----3----7----|--0----------------|
--3----------3--3----|--0----2----3----7----|--0----------------|
--2----------2--2----|------------0----4----|-------------------|
--0----------0--0----|--2----4--------------|--2----------------|
---------------------|----------------------|-------------------|
---------------------|----------------------|-------------------|

PARA PAU Y MAR
Suggest correction
Creating personal tab
Creating personal tab
You can edit any tab online and save it as your Personal.

You can edit, replace or remove any tab part or add personal notes – all changes will be seen only by you.

Personal tabs can be accessed anytime from any device, even offline.
Learn more »
Give kudos to tab author, rate the tab!
1 2 3 4 5
comments
print report bad tab
guest
Wanna post a correction for this tab? Suggest correction