Oops, an error
Loading. Please wait.

El Cuadro tab

version 1
version 1

Whole song

Interactive

100 views 1 this week
no commentswrite comment
1 2 3 4 5
3 more votes to show rating
add to favorites
×
Save as Personal and add changes to this tab that will be seen only by you. Learn more ›
×
You can save this tab as Personal to edit and correct it or add notes. All changes will be seen only by you. Learn more »
launch autoscroll
font size
0
reset
how to read this tab
guitar tuner
edit
Autoscroll
slow
fast
+/-
esc
set tempo
stop
Hola amigos como están? aquí les mando LA
tablatura del cuadro en la poderosísima
versión del directo senda 91? de nuestro
maestro Juan Valdivia que hace una muy buena
composicion..... heroes parasiempre

Intro:


/---12-13-12-10 ----12-13-12-10----------------/
/----------------------------------------------/
/----------------------------------------------/  X6
/----------------------------------------------/
/----------------------------------------------/
/----------------------------------------------/

/------12-13-12-10-----------------------------/
/----------------------13----------------------/
/----------------------------------------------/
/----------------------------------------------/
/----------------------------------------------/
/----------------------------------------------/


 Dm                  C
Mis ojos van al cuadro
 B                A
algos eh iluminados
 Dm                          C
y en su interior las figuras danzan
 B                          A
me miran fijamente y se agrandan
(SE REPITE EL INTRO)
/---12-13-12-10 ----12-13-12-10---------/
/---------------------------------------/
/---------------------------------------/   X6
/---------------------------------------/
/---------------------------------------/
/---------------------------------------/

/------12-13-12-10-------------------------/
/----------------------13------------------/
/------------------------------------------/
/------------------------------------------/
/------------------------------------------/
/------------------------------------------/


 Dm                 C
mi cuerpo pesa menos
 B               A
siento que me elebo
 Dm                           C
las pistolas de guarjol sin munición
 B                           A
se nubla en mi cerebro la situación

uhu  uhuuuu  uuuu

/-----7----7--------------------------------/
/-------8-----7-----------------------------/
/----------------9--------------------------/    X2
/------------------9------------------------/
/-------------------------------------------/
/-------------------------------------------/
Dm , C , B , A

 Dm                C
Rodeado por miradas
 B             A
algo difuminadas
 Dm                           C
y admito los colores de su interior
 B                            A
y sufre mi figura la transformación


uhu  uhuuuu  uuuu

/-----7----7----------7-8-7-8--7------------/
/-------8-----7-----------------------------/
/----------------9--------------------------/    X2
/------------------9------------------------/
/-------------------------------------------/
/-------------------------------------------/

Dm , C , B , A

 Dm
y aquellos ojos blancos
                   C
me vuelvo hacia su lado
 B
me obligan a sentirme así
      A
estar tras de ti
intro:

/---12-13-12-10 ----12-13-12-10/
/------------------------------/
/------------------------------/      X6
/------------------------------/
/------------------------------/
/------------------------------/

/------12-13-12-10-------/
/----------------------13/
/------------------------/
/------------------------/
/------------------------/
/------------------------/


solo:
  Dm                               C                              B
/------------------------------------------------------------------------/
/---------------------------------------------------------16-----15----13/
/------------------------------------------------------13-----13----13---/
/-13-13-15-16-13--13-13-15-16--11-13-15-13-11/14-12/14-------------------/
/------------------------------------------------------------------------/
/------------------------------------------------------------------------/
                  Am                          Dm
/------------------------------------------------------------------------/
/-------------------------------------------15-15-17-18-15-13-15-17-15---/
/-13h15p13----------15---------14-------14-----------------------------19/
/-----------15s13p15----12/14-----12/14----------------------------------/
/------------------------------------------------------------------------/
/------------------------------------------------------------------------/
  C                              B                          Dm
/-----------------------------------------------------------------------/
/-13-17-15----19----18----16--------------------------------------------/
/-----------16----16-----16-----15h17p15--------------------------------/
/------------------------------------------17s15p17-------------------12/
/----------------------------------------------------18-16-14-11/13--.12/
/---------------------------------------------------------------------10/


/-----------------/
/-----------------/
/-----------------/
/-12-11-10-9------/
/-12-11-10-9------/ al final
/-10--9--8-7------/

cualquier duda manden ami correo heroedeleyenda_hds@

            
            
Suggest correction
Creating personal tab
Creating personal tab
You can edit any tab online and save it as your Personal.

You can edit, replace or remove any tab part or add personal notes – all changes will be seen only by you.

Personal tabs can be accessed anytime from any device, even offline.
Learn more »
Give kudos to tab author, rate the tab!
1 2 3 4 5
comments
print report bad tab
guest
Wanna post a correction for this tab? Suggest correction