Oops, an error
Loading. Please wait.

El Cuadro 2 tab

version 2
version 2

Whole song

54 views 1 this week
no commentswrite comment
1 2 3 4 5
3 more votes to show rating
add to favorites
×
Save as Personal and add changes to this tab that will be seen only by you. Learn more ›
×
You can save this tab as Personal to edit and correct it or add notes. All changes will be seen only by you. Learn more »
launch autoscroll
font size
0
reset
how to read this tab
guitar tuner
edit
Autoscroll
slow
fast
+/-
esc
set tempo
stop
Junte la mayoria de las tablaturas de otras y las junte con las qmue supe
por que no paresia bien la cancion antes ojala les sirba.

VIVA HEROES!!!


Todo Sobre Heroes!

INTRO:
E-----------------------------10----------10-12-15-13---13----12-10-12-12-
B------------------------------0---------------------------------------13-
G------------------------------7-----------7--9-12-10------------------12-
D------------------------------0-------7-------------------------------14-
A------------------------------------8---------------------------------12-
e-----------------------------------------------------12---------------12-

E-------------------------|---------------|---------------------------|---
B------------------15--15-|----19-17---15-|----------------------10---|---
G--------------16----16---|---------------|----15-14-12-14------------|---
D-14-15-----16-16---------|-14-16-14---12-|-14-----------0-14--12--12-|---
A-----------17-17---------|---------------|-------------14------------|---
e-12-13-15-----14---------|---------------|-15------------------------|---

E-10-------13-17-16----17-17----|-------------|-----------------------|---
B-10----------------17-------18-|-20-22-20----|-----13-15-17-17-15-13-|---
G-10----------------------------|----------21-|-----------------------|---
D-12----------------------------|-------------|-2---------------------|---
A-10----------------------------|-------------|-----13----15----------|---
e-10---12-----------16----------|----------24-|-----------------------|---

E-12-14-17---------|-17--14--14--19-|
B---------------15-|-19--15--15--19-|
G----11-14------16-|-16----------16-|
D-----------14-----|---------14-----|
A------------------|----------------|
e------------------|-17--14--12-----|

-----14-12-10-12---------10-9-7----9-10---|
--------------------------------10------10|
-0-------------------2--------------------|
-2-------------------4--------------------|
---------------------------------7--------|
--------------12-----------------9--------|


E-12-13-12--|--|-12-13-12--|--|-12-13-12--17-15-13-12-------------|--|
B---------15|--|---------14|--|-----------------------17-15-13-12-|--|
G-----------|X-|-----------|X-|-----------------------------------|X-|
D-----------|-4|-----------|-4|-----------------------------------|-2|
A-----------|--|-----------|--|-----------------------------------|--|
e-----------|--|-----------|--|-----------------------------------|--|
ACABA EL INTRO..


Esta Parte Parte Es Copiada...
   Dm                     C                   Bm                   Am
      mi__s   o__jo__s   van al cu__adr__o    alg_o  se a il_uminad_____o
E-------------5-5-------|-------------------|--------2---------2-----2--|
B------6-5--------6-5---|-------5---6-5-----|----------3---------2-----2|
G----------7----------7-|-----5---5-----5---|-----4------4---4-----4----|
D---7-------------------|---5---------------|---4----------4------------|
A-5---------------------|-3-----------------|-2-------------------------|
e-----------------------|-------------------|---------------------------|

   Dm                     C                   Bm                   Am
y en su interior las figuras danzan de mira  me mir_ fijam_ y se agrand_a
E-------------5-5-------|-------------------|--------2---------2-----2--|
B------6-5--------6-5---|-------5---6-5-----|----------3---------2-----2|
G----------7----------7-|-----5---5-----5---|-----4------4---4-----4----|
D---7-------------------|---5---------------|---4----------4------------|
A-5---------------------|-3-----------------|-2-------------------------|
e-----------------------|-------------------|---------------------------|

______________________________________________________________________
E-12-13-12--|--|-12-13-12--|--|-12-13-12--17-15-13-12-------------|--|
B---------15|--|---------14|--|-----------------------17-15-13-12-|--|
G-----------|X-|-----------|X-|-----------------------------------|X-|
D-----------|-4|-----------|-4|-----------------------------------|-2|
A-----------|--|-----------|--|-----------------------------------|--|
e-----------|--|-----------|--|-----------------------------------|--|


Copiada...
  Dm                     C                   Bm                   Am
  mi cu__erp____o     pesa   men______os       sien_to  que me elev___o
E-------------5-5-------|-------------------|--------2---------2-----2--|
B------6-5--------6-5---|-------5---6-5-----|----------3---------2-----2|
G----------7----------7-|-----5---5-----5---|-----4------4---4-----4----|
D---7-------------------|---5---------------|---4----------4------------|
A-5---------------------|-3-----------------|-2-------------------------|
e-----------------------|-------------------|---------------------------|

  Dm                     C                   Bm                   Am
la pistola de guarjol sin munición          se nu... en mi ce.. la si..
E-------------5-5-------|-------------------|--------2---------2-----2--|
B------6-5--------6-5---|-------5---6-5-----|----------3---------2-----2|
G----------7----------7-|-----5---5-----5---|-----4------4---4-----4----|
D---7-------------------|---5---------------|---4----------4------------|
A-5---------------------|-3-----------------|-2-------------------------|
e-----------------------|-------------------|---------------------------|

(piano)
D-Am-D-Am

Dm                       Am                      Bm
E-----------------------|----------------------|-------3-2--------3-2-|
B---6---5------6---5----|---5---3------5---3---|---3----------3-------|
G-----7---7------7----7-|-----5---5------5---5-|-----4----------4-----|
D-7----------7----------|-5----------5---------|-4----------4---------|
A-----------------------|----------------------|----------------------|
e-----------------------|----------------------|----------------------|

  Am
E------------------------2-----|
B---3---2-------3---2------2---|
G-4---4---4---4---4---4------4-|
D------------------------------|
A------------------------------|
e------------------------------|

Dm                       Am                      Bm
  ro__de___ad__o         por mir___ad__as       algo difu__mina_d_a_s
E-----------------------|----------------------|-------3-2--------3-2-|
B---6---5------6---5----|---5---3------5---3---|---3----------3-------|
G-----7---7------7----7-|-----5---5------5---5-|-----4----------4-----|
D-7----------7----------|-5----------5---------|-4----------4---------|
A-----------------------|----------------------|----------------------|
e-----------------------|----------------------|----------------------|

 Am
E------------------------2-----|
B---3---2-------3---2------2---|
G-4---4---4---4---4---4------4-|
D------------------------------|
A------------------------------|
e------------------------------|


  Dm                     C                   Bm                   Am
    y habito los  colores de su inetrior   y su_ mi fi_g... una trans...
E-------------5-5-------|-------------------|--------2---------2-----2--|
B------6-5--------6-5---|-------5---6-5-----|----------3---------2-----2|
G----------7----------7-|-----5---5-----5---|-----4------4---4-----4----|
D---7-------------------|---5---------------|---4----------4------------|
A-5---------------------|-3-----------------|-2-------------------------|
e-----------------------|-------------------|---------------------------|

(piano)
D-Am-D-Am

Dm                       Am                      Bm
E-----------------------|----------------------|-------3-2--------3-2-|
B---6---5------6---5----|---5---5------5---3---|---3----------3-------|
G-----7---7------7----7-|-----5---5------5---5-|-----4----------4-----|
D-7----------7----------|-5----------5---------|-4----------4---------|
A-----------------------|----------------------|----------------------|
e-----------------------|----------------------|----------------------|

Am
E------------------------2-----|
B---3---2-------3---2------2---|
G-4---4---4---4---4---4------4-|
D------------------------------|
A------------------------------|
e------------------------------|


Dm                       Am                      Bm
  y aquellos ojos  blancos me vuelvo que azulado me obligan sentirm__e
E-----------------------|----------------------|-------3-2--------3-2-|
B---6---5------6---5----|---5---3------5---3---|---3----------3-------|
G-----7---7------7----7-|-----5---5------5---5-|-----4----------4-----|
D-7----------7----------|-5----------5---------|-4----------4---------|
A-----------------------|----------------------|----------------------|
e-----------------------|----------------------|----------------------|

 Am
as___i
E------------------------2-----|
B---3---2-------3---2------2---|
G-4---4---4---4---4---4------4-|
D------------------------------|
A------------------------------|
e------------------------------|

________________________________________________________________________

E-12-13-12--|--|-12-13-12--|--|-12-13-12--17-15-13-12-------------|--|
B---------15|--|---------14|--|-----------------------17-15-13-12-|--|
G-----------|X-|-----------|X-|-----------------------------------|X-|
D-----------|-4|-----------|-4|-----------------------------------|-2|
A-----------|--|-----------|--|-----------------------------------|--|
e-----------|--|-----------|--|-----------------------------------|--|


solo:
  Dm                               C                              Bm
E------------------------------------------------------------------------
B----------------------------------------------------------16----15----13
G-------------------------------------------------------13----13----13---
D-13-13-15-16-13--13-13-15-16--11-13-15-13-11/14-12/14-------------------
A------------------------------------------------------------------------
e------------------------------------------------------------------------
                  Am                          Dm
E------------------------------------------------------------------------
B------------------------------------------15-15-17-18-15--13-15-17-15---
G-13h15p13----------15-------14-------14-------------------------------19
D----------15s13p15----12/14----12/14------------------------------------
A------------------------------------------------------------------------
e------------------------------------------------------------------------
  C                              Bm                         Dm
E------------------------------------------------------------------------
B-13-17-15-----19----18----16--------------------------------------------
G-----------16----16----16-----15h17p15----------------------------------
D--------------------------------------17s15p17-----------------12-------
A-----------------------------------------------18-16-14-11/13--12-------
e---------------------------------------------------------------10-------


E------------|
B------------|
G------------|
D-12-11-10-9-|
A-12-11-10-9-|
e-10-9--8--7-|

            
            
Suggest correction
Creating personal tab
Creating personal tab
You can edit any tab online and save it as your Personal.

You can edit, replace or remove any tab part or add personal notes – all changes will be seen only by you.

Personal tabs can be accessed anytime from any device, even offline.
Learn more »
Give kudos to tab author, rate the tab!
1 2 3 4 5
comments
print report bad tab
guest
Wanna post a correction for this tab? Suggest correction