Oops, an error
Loading. Please wait.

El Estanque tab

version 3
version 3

Whole song

Interactive

25 views 1 this week
no commentswrite comment
1 2 3 4 5
3 more votes to show rating
add to favorites
×
Save as Personal and add changes to this tab that will be seen only by you. Learn more ›
×
You can save this tab as Personal to edit and correct it or add notes. All changes will be seen only by you. Learn more »
launch autoscroll
font size
0
reset
how to read this tab
guitar tuner
edit
Autoscroll
slow
fast
+/-
esc
set tempo
stop
Intro: Dm-Am

   C        Dm              Dm           Am        C       Dm
/-------------------------/------------1-0----0------------------/
/-------------------------/--1/3-----3----------3--1----------1-3/
/-------------------------/--------2-----------------0--0-0-2----/
/-------------------2-5-0-/--------------------------------------/
/--0-2-3-----3----3-------/--------------------------------------/
/-------------------------/--------------------------------------/


 Dm                  Am                  C                 Dm
/-------------1-0----8---7---5-----------------------------------/
/-3-1-3-----3----------5---5---5-5-------------------------------/
/---------2------------------------7-5--------0-2-3-2-0----------/
/---------------------------------------5---------------3-2-0----/
/----------------------------------------------------------------/
/----------------------------------------------------------------/


   Dm    G          Em                   F
/-------3---8-7-3-0---3-2-0---/-0-1-0--------3-0/-0-1-0-------3-0/
/-3---3-----------------------/-------1----1----/-------1---1----/
/---2-----------------------4-/----------2------/---------2------/
/-----------------------------/-----------------/----------------/
/-----------------------------/-----------------/----------------/
/-----------------------------/-----------------/----------------/


     Cambio de tono
         Em        Bm        D          Em               Bm
/-0-1-0--0/-----3--2---2-0--------------0--/-----------3-2-/
/---------/---5------------3---------0-3---/-5-3-5---5-----/
/---------/-4----------------2---2-2-------/-------4-------/
/---------/--------------------------------/---------------/
/---------/--------------------------------/---------------/
/---------/--------------------------------/---------------/


                   D                    Em
/-10--9--7--------------------------------/
/---7--7---7-7----------------------------/
/--------------9-7------------------------/
/------------------7----7-9-10-9-7--------/
/----------------------------------10-9-7-/
/-----------------------------------------/


 Em     G          Em                   F
/-------3---8-7-3-0---3-2-0---/-0-1-0--------3-0/-0-1-0-------3-0/
/-3---3-----------------------/-------1----1----/-------1---1----/
/---2-----------------------4-/----------2------/---------2------/
/-----------------------------/-----------------/----------------/
/-----------------------------/-----------------/----------------/
/-----------------------------/-----------------/----------------/


          Rápido
         E    E E E E        Bm       D               Em
/-0-1-0-0-0-/-0-0-0-0------3-2--2-0---5---5------------0---------/
/---------0-/-0-0-0-0----5----------3---3---3------0/3-----5-3-5-/
/---------0-/-0-0-0-0--4-----------------------2-2---------------/
/---------2-/-2-2-2-2--------------------------------------------/
/---------2-/-2-2-2-2--------------------------------------------/
/---------0-/-0-0-0-0--------------------------------------------/

Comienza verso.

 Em                       Bm                      D
 Las leyes salvajes       Empañan mi huida            el estanque
/-----------------------3-2--2------2-----2--0----5--------------/
/---------------------5-----------------------3------------------/
/-------------------4--------------------------------------------/
/----------------------------------------------------------------/
/----------------------------------------------------------------/
/----------------------------------------------------------------/

          Em                       G                       Em
             no para de crecer       Tanto sube el nivel
/---------0-----------------------3----------------8-7--3-0--0-0-/
/-----0-3---------------------5-3----------------------------0-0-/
/-2-2--------------------------------------------------------0-0-/
/------------------------------------------------------------2-2-/
/------------------------------------------------------------2-2-/
/------------------------------------------------------------0-0-/


      F                                  Em                 G
   El mar        Ooooh    se derrama ahogándome
/-0-1-0 -0-1-0-------3-0-----------------0-0-0-0-0-0--------3----/
/-0-1----------1---1---------------------0-0-0-0-0-0-----5-3-----/
/-0-2-------------2----------------------0-0-0-0-0-0-------------/
/-2-3------------------------------------2-2-2-2-2-2-------------/
/-2-3------------------------------------2-2-2-2-2-2-------------/
/-0-1------------------------------------0-0-0-0-0-0-------------/


                      Em        F

 Tanto sube el nivel      el mar           ooooooh
/---------------8-7-3-0--/--------0-1-0-----------3-0-/
/------------------------/--------------1--------1----/
/------------------------/---------------------2------/
/------------------------/----------------------------/
/------------------------/----------------------------/
/------------------------/----------------------------/

                                                            Cambio tono
                    Am              A#                     Dm

 Se  derrama  ahogándomeee     ahogándomeee    Solo hay arena
/-------------------0-0-0-0-0-0-0-0-1-1-1-1-1-1-1-1-1-1-1--1-1-1-/
/-------------------1-1-1-1-1-1-1-1-3-3-3-3-3-3-3-3-3-3-3--3-3-3-/
/-------------------2-2-2-2-2-2-2-2-3-3-3-3-3-3-3-3-3-3-3--2-3-3-/
/-------------------2-2-2-2-2-2-2-2-3-3-3-3-3-3-3-3-3-3-3--0-0-0-/
/-------------------2-0-0-0-0-0-0-0-1-1-1-1-1-1-1-1-1-1-1--0-0-0-/
/-------------------0-0-0-0-0-0-0-0-1-1-1-1-1-1-1-1-1-1-1--0-0-0-/


 Dm       Am   C                 Dm
/-----1-0--0----3---3-----------------------/
/---3-------3-1---1---1---------1-3---3-1-3-/
/-2----------------------0--0-2-------------/
/-------------------------------------------/
/-------------------------------------------/
/-------------------------------------------/


  Dm               Am                     C
  Sólo en este   momento El malentendido      El estanque
/----------------1-0------8---7---5------------------------/
/---------------3-----------5---5--5-5---------------------/
/-------------2------------------------5-7-----------------/
/------------------------------------------5---------------/
/----------------------------------------------------------/
/----------------------------------------------------------/


                 Dm                     G                   Em
                   Oh el estanqueeeee    Tanto sube el nivel
/---------------------------------------------------8--7--3-0---/
/---------------------------------------------------------------/
/--0-2-3-2--0---------------------------------------------------/
/------------3-2-0----------------------------------------------/
/---------------------------------------------------------------/
/---------------------------------------------------------------/

       F                                   Am          A#
  El mar         ooooh       se derrama ahogándome ahogándomeeeee
/-------0-1-0--------2-0-------------------0-0-0-0-0-0-1-1-1-1-1-/
/-------------1----1-----------------------1-1-1-1-1-1-3-3-3-3-3-/
/----------------3-------------------------2-2-2-2-2-2-3-3-3-3-3-/
/------------------------------------------2-2-2-2-2-2-3-3-3-3-3-/
/------------------------------------------0-0-0-0-0-0-1-1-1-1-1-/
/------------------------------------------0-0-0-0-0-0-1-1-1-1-1-/

              Dm
  Sólo  hay   arena
/-1-1-1-1-1---1----/
/-3-3-3-3-3---3----/
/-3-3-3-3-3---2----/
/-3-3-3-3-3---0----/
/-1-1-1-1-1---0----/
/-1-1-1-1-1---0----/

            
            
Suggest correction
Creating personal tab
Creating personal tab
You can edit any tab online and save it as your Personal.

You can edit, replace or remove any tab part or add personal notes – all changes will be seen only by you.

Personal tabs can be accessed anytime from any device, even offline.
Learn more »
Give kudos to tab author, rate the tab!
1 2 3 4 5
comments
print report bad tab
guest
Wanna post a correction for this tab? Suggest correction