Oops, an error
Loading. Please wait.

El Estanque tab

version 5
version 5

Whole song

Interactive

112 views 1 this week
no commentswrite comment
1 2 3 4 5
3 more votes to show rating
add to favorites
×
Save as Personal and add changes to this tab that will be seen only by you. Learn more ›
×
You can save this tab as Personal to edit and correct it or add notes. All changes will be seen only by you. Learn more »
launch autoscroll
font size
0
reset
how to read this tab
guitar tuner
edit
Autoscroll
slow
fast
+/-
esc
set tempo
stop
ok esta aqui por mi la cancion el estanque esta es la version
  live en el concierto 2007 del dvd espero que les guste no es mi
 primera transcription la s demas estan escritas en mi folder bueno
espero que le guste. empeze a las 2:31 acabe a las 3:43


                    hold 7    riff# 1
e.-------------------------'-------------------------'
B.-------------------------'------------x2-----------'
G.---------------------5h7-'--(b7-5-7/9)---b7-5-7/10-'
D.-----------3-3h5p3-------'-------------------------'
A.0-2-2/3-3h5--------5-----'-------------------------'
E.-------------------------'-------------------------'

                                                   Dm
e.---------------------------------------------------5-'
B.---------------6-5--5p3----------------------------6-'
G.9p7--7p5h7---7-----------5-5-----------------------7-'
D.-----------7---------------5--5h7-8-7-5------------5-'
A.----------------------------------------8-7-5------5-'
E.-----------------------------------------------------'


e.-8-7--------------------------------------------'
B.-----8-5--8-7-5--------5-6-8-6--5-6-5--------8--'
D.----------------4------x--------x-----4----9---9'
G.-----------------------x--------x--------9------'
A.------------------------------------------------'
E.------------------------------------------------'

         Em
e.--------7------------------------------------'
B.5-6-5---9-------------x2---------------------'
G.x-------9--(B9-7-9/11)----B9-7-9/12--12p9----'
D.x-------9------------------------------------'
A.--------7------------------------------------'
E.---------------------------------------------'


e.-------------------------'
B.---8-10--b10-8--------8--'
G.-9-------------9----9----'
D.------------------9------'
A.-------------------------'
E.-------------------------'

                                Dm
e.-------------------------------5--8-7--------------'
B.7-7p5--------------------------6-------8-5--b10-8--'
G.-------7--7--2h4-5-4-2---------7------------------9'
D.----------7-------------5-4-2--5-------------------'
A.-------------------------------5-------------------'
E.---------------------------------------------------'


e.--------------------------------------------------'
B.5-6-8-8/10---B16-14-12----------------------------'
G.x------------------------12h13-14-13-12-----------'
D.x----------------------------------------14-13-12-'
A.--------------------------------------------------'
E.--------------------------------------------------'


riff #2
e.------------------------------------'
B.-------------x2---------------------'
G.--(b9-7-9/11)----b9-7-9/12--12p9----'
D.------------------------------------'
A.------------------------------------'
E.------------------------------------'


Em

Las leyes salvajes

   Bm

empañan mi huida

D               Em

el estanque no para de crecer

G                Em

tanto sube el nivel

    F                 Am

el mar se derrama ahogándome

G                Em

tanto sube el nivel

    F                 Am

el mar se derrama ahogándome

    A#

ahogandome

           Dm

solo hay arena


Dm             Am

Solo en este momento

              C

el malentendido


el estanque

Dm

el estanque


G                Em

tanto sube el nivel

    F                 Am

el mar se derrama ahogándome

    A#

ahogandome

           Dm

solo hay arena

Fin

bueno creo que va asi porque anduve en la escuela cuando
ise esto pero cuando vaya a la casa me fijare si tengo erores
en esta cancion. pero si no hay pues que les vaya bien.
virgilio peres.
bueno ya coregi lo que se necesitaba
y tambien algunos riffs se repiten en algunos versos.

            
            
Suggest correction
Creating personal tab
Creating personal tab
You can edit any tab online and save it as your Personal.

You can edit, replace or remove any tab part or add personal notes – all changes will be seen only by you.

Personal tabs can be accessed anytime from any device, even offline.
Learn more »
Give kudos to tab author, rate the tab!
1 2 3 4 5
comments
print report bad tab
guest
Wanna post a correction for this tab? Suggest correction