Oops, an error
Loading. Please wait.

En Brazos De La Fiebre tab

version 1
version 1

Whole song

Interactive

408 views 1 this week
no commentswrite comment
1 2 3 4 5
3 more votes to show rating
add to favorites
×
Save as Personal and add changes to this tab that will be seen only by you. Learn more ›
×
You can save this tab as Personal to edit and correct it or add notes. All changes will be seen only by you. Learn more »
launch autoscroll
font size
0
reset
how to read this tab
guitar tuner
edit
Autoscroll
slow
fast
+/-
esc
set tempo
stop
Dato: Mié, 29 de agosto, 8:16:34 PM
Por: Omar Vidal

   En Brazos de la Fiebre

Héroes del Silencio
Música: P. Andreu, E. Bunbury, J. Cardiel & J. Valdivia
Álbum: Avalancha (1995)


  Este es el SOLO de la canción y va más o menos así:

   Em       Bm             F            Am
e|--------------------------------------------------------|
B|--------------------------------------------------------|
G|-9------------------------------------------------------|
D|-9----------------------------7--7----------------------|
A|-7-7-7-7-7h9~--9-7-5--7/8~--8---8--8-7~--10-9h10p9--7-5-|
E|--------------------------------------------------------|

   Em       Bm            F           Am
e|---------------------------------------------------|
B|---------------------------------------------------|
G|-9-------------------------------------------------|
D|-9-------------------------------------------------|
A|-7-7-7-7-7h9~--9-7-5--7/8~-8-7p5-------------5-7---|
E|----------------------------------8-7--5-7-8-------|

   Em       Bm             F          Am
e|-----------------------------------------------------------|
B|-----------------------------------------------------------|
G|-9---------------------------------------------------------|
D|-9---------------------------10-12^------------------------|
A|-7-7-7-7-7h9~--9-7-5--7/8~-----------7------10-9h10p9--7-5-|
E|-----------------------------------------------------------|
   Em             Bm              F
e|-------------------------------------------|
B|-------------------------------------------|
G|-9-(9)-(9)-(9)-----------------------------|
D|-9-(9)-(9)-(9)-----------------------10h12-|
A|-7--7---7---7--7h9~--9-7-5--7/8--8~--------|
E|-------------------------------------------|

    Am                      Em                Bm          F
e|------------------------------------------------------------|
B|------------------------------------------------------------|
G|----------------------------------9-11-12-11^12-11p9----10~-|
D|-14^--14-12-10-12-9-10-10/14~--10--------------------12-----|
A|------------------------------------------------------------|
E|------------------------------------------------------------|

                  Am                     Em          Bm
e|------------------------------------------------7-------------|
B|---10--10-------------------------------------8---7^8-7~------|
G|-10--10--10-9h10p9~----12-11h12p11-9-7-9~---9------------11p9-|
D|---------------------------------------9~-9-------------------|
A|---------------------------------------7~---------------------|
E|--------------------------------------------------------------|
        F              Am                 Em
e|---------------------------------------------|
B|---------10----10---13-12-13-12-13-12-13/17~-|
G|-7-9/10~----10----10-------------------------|
D|---------------------------------------------|
A|---------------------------------------------|
E|---------------------------------------------|
           Bm         F                Am                   Em
e|-------------------------17--17----------15-14h15-12-10---12~-|
B|---17-17-17^-17^15-18~-18--18--17h18-17~------------------12~-|
G|-16--16-------------------------------------------------------|
D|--------------------------------------------------------------|
A|--------------------------------------------------------------|
E|--------------------------------------------------------------|

                Bm               F        Am              Em
e|---12-12^--12p10~--10-10^-10p8-8~--8-8-8p7--------------------|
B|-12----------------------------------------8p7----------------|
G|-----------------------------------------------9p7------------|
D|---------------------------------------------------9h10-9~~~--|
A|--------------------------------------------------------7~~~--|
E|--------------------------------------------------------------|

creo q así queda un poco más parecida a la q tu tenias; esta version es
la q es en concierto con unas modificaciones claro está.
acá les dejo el video creo q suena muy parecido.
(
Corregida por: Ricardo2610 CSH 22!!.

            
            
Suggest correction
Creating personal tab
Creating personal tab
You can edit any tab online and save it as your Personal.

You can edit, replace or remove any tab part or add personal notes – all changes will be seen only by you.

Personal tabs can be accessed anytime from any device, even offline.
Learn more »
Give kudos to tab author, rate the tab!
1 2 3 4 5
comments
print report bad tab
guest
Wanna post a correction for this tab? Suggest correction