Oops, an error
Loading. Please wait.

En Brazos De La Fiebre tab

version 3
version 3

Whole song

Interactive

262 views 1 this week
1 commentread comment
1 2 3 4 5
2 more votes to show rating
add to favorites
×
Save as Personal and add changes to this tab that will be seen only by you. Learn more ›
×
You can save this tab as Personal to edit and correct it or add notes. All changes will be seen only by you. Learn more »
launch autoscroll
font size
0
reset
how to read this tab
guitar tuner
edit
Autoscroll
slow
fast
+/-
esc
set tempo
stop
Intro:
            Em                          Bm     F#m
e|-----------0--------------------------2-------2-------------|
B|-----------0--------------------------3-------2-----2-------|
G|---0-------0-----0-----------0--------4-------2-2h4---4-2-0-|
D|--0--4-0---2---------4---2--0--4-0----4---4---4-------------|
A|-2-------2-2-2-2---2---2---2-------2--2-2---2-4-------------|
E|-----------0----------------------------------x-------------|

 D             C        G     D
-2-------2-2-2----------3-3---2-2---|
-3-------3-3-3-------5--3--3--3---3-|
-2-------2-2-2-----5----0---0-2-----|
-0-0-0-0-0-0-0---5------0-----0-----|
---------------3--------x-----------|
------------------------x-----------|

Verso:
            Em                          Bm     F#m
e|-----------0--------------------------2-------2-------------|
B|-----------0--------------------------3-------2-----2-------|
G|---0-------0-----0-----------0--------4-------2-2h4---4-2-0-|
D|--0--4-0---2---------4---2--0--4-0----4---4---4-------------|
A|-2-------2-2-2-2---2---2---2-------2--2-2---2-4-------------|
E|-----------0----------------------------------x-------------|

 D             C        G     D
-2-------2-2-2----------3-3---2-2---|
-3-------3-3-3-------5--3--3--3---3-|
-2-------2-2-2-----5----0---0-2-----|
-0-0-0-0-0-0-0---5------0-----0-----|
---------------3--------x-----------|
------------------------x-----------|

            Em                          Bm     F#m
e|-----------0--------------------------2-------2-------------|
B|-----------0--------------------------3-------2-----2-------|
G|---0-------0-----0-----------0--------4-------2-2h4---4-2-0-|
D|--0--4-0---2---------4---2--0--4-0----4---4---4-------------|
A|-2-------2-2-2-2---2---2---2-------2--2-2---2-4-------------|
E|-----------0----------------------------------x-------------|

 D             C        G     D
-2-------2-2-2----------3-3---2-2---|
-3-------3-3-3-------5--3--3--3---3-|
-2-------2-2-2-----5----0---0-2-----|
-0-0-0-0-0-0-0---5------0-----0-----|
---------------3--------x-----------|
------------------------x-----------|

Puente:
            Em                         C         D
e|-----------0-------------------------0-0---0-0-2-2---
B|-----------0-------------------------1--1--1-1-3--3--
G|---0-------0-----0-----------0-------0---0-0-0-2---2-
D|--0--4-0---2---------4---2--0--4-0---2-----2-2-0-----
A|-2-------2-2-2-2---2---2---2-------2-3-----3-3-------
E|-----------0-----------------------------------------

 C       Em        D
-0-0--0---0-0--0---2-2-2-2-2-|
-1--1--1--0--0--0--3-3-3-3-3-|
-0---0----0---0--0-2-2-2-2-2-|
-2--------2--------0-0-0-0-0-|
-3--------2------------------|
----------0------------------|

Coro:
   F      C        G
e|---1----0-0-0-0--3-3-3-3-3-3-3-3-3-3--
B|----1---1-1-1-1--3-3-3-3-3-3-3-3-3-3--
G|-2---2--0-0-0-0--0-0-0-0-0-0-0-0-0-0--
D|-3------2---2-2--0-0-0-0-0-0-0-0-0-0--
A|-3------3---3-3--2-2-2-2-2-2-2-2-2-2--
E|-1---------------3-3-3-3-3-3-3-3-3-3--

 Dm              Am         G
-5-5----5-5-5-5-5-5-5-5-5-5-3-3-3-3-3--|
-6--6---6-6-6-6-6-5-5-5-5-5-3-3-3-3-3--|
-7---7--7-7-7-7-7-5-5-5-5-5-0-0-0-0-0--|
-7----7-7-7-7-7-7-7-7-7-7-7-0-0-0-0-0--|
-5------5-5-5-5-5-7-7-7-7-7-2-2-2-2-2--|
------------------5-5-5-5-5-3-3-3-3-3--|

   F      C        G
e|---1----0-0-0-0--3-3-3-3-3-3-3-3-3-3--
B|----1---1-1-1-1--3-3-3-3-3-3-3-3-3-3--
G|-2---2--0-0-0-0--0-0-0-0-0-0-0-0-0-0--
D|-3------2---2-2--0-0-0-0-0-0-0-0-0-0--
A|-3------3---3-3--2-2-2-2-2-2-2-2-2-2--
E|-1---------------3-3-3-3-3-3-3-3-3-3--

 Dm              Am         G
-5-5----5-5-5-5-5-5-5-5-5-5-3-3-3-3-3--|
-6--6---6-6-6-6-6-5-5-5-5-5-3-3-3-3-3--|
-7---7--7-7-7-7-7-5-5-5-5-5-0-0-0-0-0--|
-7----7-7-7-7-7-7-7-7-7-7-7-0-0-0-0-0--|
-5------5-5-5-5-5-7-7-7-7-7-2-2-2-2-2--|
------------------5-5-5-5-5-3-3-3-3-3--|

Intro:
            Em                          Bm     F#m
e|-----------0--------------------------2-------2-------------|
B|-----------0--------------------------3-------2-----2-------|
G|---0-------0-----0-----------0--------4-------2-2h4---4-2-0-|
D|--0--4-0---2---------4---2--0--4-0----4---4---4-------------|
A|-2-------2-2-2-2---2---2---2-------2--2-2---2-4-------------|
E|-----------0----------------------------------x-------------|

 D             C        G     D
-2-------2-2-2----------3-3---2-2---|
-3-------3-3-3-------5--3--3--3---3-|
-2-------2-2-2-----5----0---0-2-----|
-0-0-0-0-0-0-0---5------0-----0-----|
---------------3--------x-----------|
------------------------x-----------|

Verso:
            Em                          Bm     F#m
e|-----------0--------------------------2-------2-------------|
B|-----------0--------------------------3-------2-----2-------|
G|---0-------0-----0-----------0--------4-------2-2h4---4-2-0-|
D|--0--4-0---2---------4---2--0--4-0----4---4---4-------------|
A|-2-------2-2-2-2---2---2---2-------2--2-2---2-4-------------|
E|-----------0----------------------------------x-------------|
 D             C        G     D
-2-------2-2-2----------3-3---2-2---|
-3-------3-3-3-------5--3--3--3---3-|
-2-------2-2-2-----5----0---0-2-----|
-0-0-0-0-0-0-0---5------0-----0-----|
---------------3--------x-----------|
------------------------x-----------|

Puente:
            Em                         C         D
e|-----------0-------------------------0-0---0-0-2-2---
B|-----------0-------------------------1--1--1-1-3--3--
G|---0-------0-----0-----------0-------0---0-0-0-2---2-
D|--0--4-0---2---------4---2--0--4-0---2-----2-2-0-----
A|-2-------2-2-2-2---2---2---2-------2-3-----3-3-------
E|-----------0-----------------------------------------

 C        Em       D
-0-0--0---0-0--0---2-2-2-2-2-|
-1--1--1--0--0--0--3-3-3-3-3-|
-0---0----0---0--0-2-2-2-2-2-|
-2--------2--------0-0-0-0-0-|
-3--------2------------------|
----------0------------------|

Coro:
   F      C        G
e|---1----0-0-0-0--3-3-3-3-3-3-3-3-3-3--
B|----1---1-1-1-1--3-3-3-3-3-3-3-3-3-3--
G|-2---2--0-0-0-0--0-0-0-0-0-0-0-0-0-0--
D|-3------2---2-2--0-0-0-0-0-0-0-0-0-0--
A|-3------3---3-3--2-2-2-2-2-2-2-2-2-2--
E|-1---------------3-3-3-3-3-3-3-3-3-3--

 Dm              Am         G
-5-5----5-5-5-5-5-5-5-5-5-5-3-3-3-3-3--|
-6--6---6-6-6-6-6-5-5-5-5-5-3-3-3-3-3--|
-7---7--7-7-7-7-7-5-5-5-5-5-0-0-0-0-0--|
-7----7-7-7-7-7-7-7-7-7-7-7-0-0-0-0-0--|
-5------5-5-5-5-5-7-7-7-7-7-2-2-2-2-2--|
------------------5-5-5-5-5-3-3-3-3-3--|

   F      C        G
e|---1----0-0-0-0--3-3-3-3-3-3-3-3-3-3--
B|----1---1-1-1-1--3-3-3-3-3-3-3-3-3-3--
G|-2---2--0-0-0-0--0-0-0-0-0-0-0-0-0-0--
D|-3------2---2-2--0-0-0-0-0-0-0-0-0-0--
A|-3------3---3-3--2-2-2-2-2-2-2-2-2-2--
E|-1---------------3-3-3-3-3-3-3-3-3-3--

 Dm              Am         G
-5-5----5-5-5-5-5-5-5-5-5-5-3-3-3-3-3--|
-6--6---6-6-6-6-6-5-5-5-5-5-3-3-3-3-3--|
-7---7--7-7-7-7-7-5-5-5-5-5-0-0-0-0-0--|
-7----7-7-7-7-7-7-7-7-7-7-7-0-0-0-0-0--|
-5------5-5-5-5-5-7-7-7-7-7-2-2-2-2-2--|
------------------5-5-5-5-5-3-3-3-3-3--|

Solo:
   Em       Bm               F             Am
e|--------------------------------------------------------|
B|--------------------------------------------------------|
G|-9------------------------------------------------------|
D|-9---------------------------7---7----------------------|
A|-7-7-7-7-7h9~--9-7-5--7/8--8---8---8-7~--10-9h10p9--7-5-|
E|--------------------------------------------------------|

   Em       Bm               F           Am
e|--------------------------------------------------|
B|--------------------------------------------------|
G|-9------------------------------------------------|
D|-9------------------------------------------------|
A|-7-7-7-7-7h9~--9-7-5--7/8--8-7p5-------------5-7--|
E|----------------------------------8-7--5-7-8------|

   Em       Bm               F        Am
e|-----------------------------------------------------------|
B|-----------------------------------------------------------|
G|-9---------------------------------------------------------|
D|-9----------------------------10-11h12-10~-----------------|
A|-7-7-7-7-7h9~--9-7-5--7/8--8----------------10-9h10p9--7-5-|
E|-----------------------------------------------------------|

   Em             Bm           F
e|-------------------------------------------|
B|-------------------------------------------|
G|-9-(9)-(9)-(9)-----------------------------|
D|-9-(9)-(9)-(9)-----------------------10h11-|
A|-7--7---7---7--7h9~--9-7-5--7/8--8---------|
E|-------------------------------------------|

      Am                          Em                      Bm
e|-----------------------------------------------------------|
B|-----------------------------------------------------------|
G------------------------------------------------------------|
D|-11/14^--12-14-12-10-12-10-9-10/14^--12-14-16-17-16/17-/16-|
A|-----------------------------------------------------------|
E|-----------------------------------------------------------|

                F                        Am
e|-----------------------------------------------------------|
B|-----------------------------------------------------------|
G|-11------------------14----14--------------12-11h12p11-9-7-|
D|-----14-12-14/15--15----15----15-14h15p14~-----------------|
A|-----------------------------------------------------------|
E|-----------------------------------------------------------|

   Em          Bm              F             Am
e|----------7--------------------------------------------------|
B|--------8---7h8-7~----------------10----10-12-10-12-13-12-13-|
G|-9~---9------------11-9-7-9/10-10----10----------------------|
D|-9~-9--------------------------------------------------------|
A|-7~----------------------------------------------------------|
E|-------------------------------------------------------------|

           Em                 Bm             F              Am
e|--------/12----12----12-12h-14~---------------------17---------|
B|-17-15--/12-12----12------------19-17-15-17/18~--18----18-17~--|
G|---------------------------------------------------------------|
D|---------------------------------------------------------------|
A|---------------------------------------------------------------|
E|---------------------------------------------------------------|

                     Em                  Bm          F
e|-------------------12~-----12----1210-10/12-10~~--8--8-8-7-|
B|-20-19h20p19-17-15-12~--12----12----------------------------|
G|------------------------------------------------------------|
D|------------------------------------------------------------|
A|------------------------------------------------------------|
E|------------------------------------------------------------|

      Am              Em
e|----------------------------|
B|-8--8-----------------------|
G|------10-10-9-9-7-----------|
D|------------------10-9~~~---|
A|---------------------7~~~---|
E|----------------------------|


Letra y acordes

Verso:
Em
Con los brazos de la fiebre
          Bm        F#m
Que aun abarcan mi frente
          D
Lo he pensado mejor
          C          G                D
Y desatare las serpientes de la vanidad
       Em
El paraíso es escuchar
     Bm
El miedo es un ladrón
         D
Al que no guardo rencor
       C            G
Y el dolor es un ensayo
       D
De la muerte

Puente:
       Em
En la piel de una gota
              C          D
Mis alas volvieron rotas
          C                    Em                D     F  C
Y entre otras cosas ya no escriben con tinta de luz

Coro:
       G
El paraíso deviene el infierno
                Dm
Y luego se queja
           Am
Y sin que nadie lo mueva
               G    F  C
¿Quién lo arregla?
       G
El paraíso deviene el infierno
                Dm
Y luego se queja
           Am
Y sin que nadie lo mueva
               G
¿Quién lo arregla?

Intro

Verso:
Gestado en mis escombros
De pastoso paladar
El disparate del caos, me derroto
Con palabras de alabanza

Puente:
       Em
En la piel de una gota
              C          D
Mis alas volvieron rotas
          C                    Em                D     F  C
Y entre otras cosas ya no escriben con tinta de luz

Coro:
       G
El paraíso deviene el infierno
                Dm
Y luego se queja
           Am
Y sin que nadie lo mueva
               G    F  C
¿Quién lo arregla?
       G
El paraíso deviene el infierno
                Dm
Y luego se queja
           Am
Y sin que nadie lo mueva
               G
¿Quién lo arregla?

 Solo

Em Bm F Am x8 y termina en Em

            
            
Suggest correction
Creating personal tab
Creating personal tab
You can edit any tab online and save it as your Personal.

You can edit, replace or remove any tab part or add personal notes – all changes will be seen only by you.

Personal tabs can be accessed anytime from any device, even offline.
Learn more »
Give kudos to tab author, rate the tab!
1 2 3 4 5
comments
print report bad tab
1 comment total.
0 reply
guillermo.becca 10 Sep 04, 2016 07:06 PM

En "ya no escriben ..." es G en lugar de Em

guest
Wanna post a correction for this tab? Suggest correction