Oops, an error
Loading. Please wait.

Entre Dos Tierras tab

version 4
version 4

Interactive

190 views 9 this week
no commentswrite comment
1 2 3 4 5
3 more votes to show rating
add to favorites
×
Save as Personal and add changes to this tab that will be seen only by you. Learn more ›
×
You can save this tab as Personal to edit and correct it or add notes. All changes will be seen only by you. Learn more »
launch autoscroll
font size
0
reset
how to read this tab
guitar tuner
backing track
0:00
0:00
edit
Autoscroll
slow
fast
+/-
esc
set tempo
stop
Excelente tema del maestro Juan Valdivia; viva los heroes!!!!
Parasiempre!!!!!!!!!!!
Dedicada a toda la vola de kabrones que les guste heroes
dudas, comentarios, saludos, mentadas.....
apuesta_rock_roll@


Bm con delay y chorus

      Bm
E |---7---------|
B |---7---------|
G |---7---------|
D |---9---------|
A |---9---------|
E |---7---------|

Luego...
      Bm
E |---7----------|---7----------|
B |---7----------|---7----------|
G |---7----------|---7----------|
D |---9----------|---9----------|
A |---9----------|---9----------|
E |---7----------|---7----------|

      Bm             G
E |---7----------|---3----------|
B |---7----------|---3----------|
G |---7----------|---4----------|
D |---9----------|---5----------|
A |---9----------|---5----------|
E |---7----------|---3----------|

      Bm
E |---7----------|---7----------|
B |---7----------|---7----------|
G |---7----------|---7----------|
D |---9----------|---9----------|
A |---9----------|---9----------|
E |---7----------|---7----------|

      Bm             A
E |---7----------|---5----------|
B |---7----------|---5----------|
G |---7----------|---6----------|
D |---9----------|---7----------|
A |---9----------|---7----------|
E |---7----------|---5----------|

Ritmo...
      Bm
E |---7-7-7-7-7-7-7-7----|---7-7-7-7-7-7-7-7----|
B |---7-7-7-7-7-7-7-7----|---7-7-7-7-7-7-7-7----|
G |---7-7-7-7-7-7-7-7----|---7-7-7-7-7-7-7-7----|
D |---9-9-9-9-9-9-9-9----|---9-9-9-9-9-9-9-9----|
A |---9-9-9-9-9-9-9-9----|---9-9-9-9-9-9-9-9----|
E |---7-7-7-7-7-7-7-7----|---7-7-7-7-7-7-7-7----|


      Bm                     G
E |---7-7-7-7-7-7-7-7----|---3-3-3-3-3----------|
B |---7-7-7-7-7-7-7-7----|---3-3-3-3-3----------|
G |---7-7-7-7-7-7-7-7----|---0-0-0-0-0----------|
D |---9-9-9-9-9-9-9-9----|---x-x-x-x-x----------|
A |---9-9-9-9-9-9-9-9----|---x-x-x-x-x----------|
E |---7-7-7-7-7-7-7-7----|---x-x-x-x-x----------|

      Bm
E |---7-7-7-7-7-7-7-7----|---7-7-7-7-7-7-7-7----|
B |---7-7-7-7-7-7-7-7----|---7-7-7-7-7-7-7-7----|
G |---7-7-7-7-7-7-7-7----|---7-7-7-7-7-7-7-7----|
D |---9-9-9-9-9-9-9-9----|---9-9-9-9-9-9-9-9----|
A |---9-9-9-9-9-9-9-9----|---9-9-9-9-9-9-9-9----|
E |---7-7-7-7-7-7-7-7----|---7-7-7-7-7-7-7-7----|

      Bm                     A
E |---7-7-7-7-7-7-7-7----|---5-5---------|
B |---7-7-7-7-7-7-7-7----|---5--5--------|
G |---7-7-7-7-7-7-7-7----|---6---6-------|
D |---9-9-9-9-9-9-9-9----|---7----7------|
A |---9-9-9-9-9-9-9-9----|---7-----------|
E |---7-7-7-7-7-7-7-7----|---5-----------|

      Bm
E |---7-7-7-7-7-7-7-7----|---7-7-7-7-7-7-7-7----|
B |---7-7-7-7-7-7-7-7----|---7-7-7-7-7-7-7-7----|
G |---7-7-7-7-7-7-7-7----|---7-7-7-7-7-7-7-7----|
D |---9-9-9-9-9-9-9-9----|---9-9-9-9-9-9-9-9----|
A |---9-9-9-9-9-9-9-9----|---9-9-9-9-9-9-9-9----|
E |---7-7-7-7-7-7-7-7----|---7-7-7-7-7-7-7-7----|

      Bm                     G
E |---7-7-7-7-7-7-7-7----|---3-3-3-3-3----------|
B |---7-7-7-7-7-7-7-7----|---3-3-3-3-3----------|
G |---7-7-7-7-7-7-7-7----|---0-0-0-0-0----------|
D |---9-9-9-9-9-9-9-9----|---x-x-x-x-x----------|
A |---9-9-9-9-9-9-9-9----|---x-x-x-x-x----------|
E |---7-7-7-7-7-7-7-7----|---x-x-x-x-x----------|
      Bm
E |---7-7-7-7-7-7-7-7----|---7-7-7-7-7-7-7-7----|
B |---7-7-7-7-7-7-7-7----|---7-7-7-7-7-7-7-7----|
G |---7-7-7-7-7-7-7-7----|---7-7-7-7-7-7-7-7----|
D |---9-9-9-9-9-9-9-9----|---9-9-9-9-9-9-9-9----|
A |---9-9-9-9-9-9-9-9----|---9-9-9-9-9-9-9-9----|
E |---7-7-7-7-7-7-7-7----|---7-7-7-7-7-7-7-7----|

      Bm                     A
E |---7-7-7-7-7-7-7-7----|---5-5---------|
B |---7-7-7-7-7-7-7-7----|---5--5--------|
G |---7-7-7-7-7-7-7-7----|---6---6-------|
D |---9-9-9-9-9-9-9-9----|---7----7------|
A |---9-9-9-9-9-9-9-9----|---7-----------|
E |---7-7-7-7-7-7-7-7----|---5-----------|

Arpegio de la Intro:
      Bm                     F#m
E |----------------------|-----------------------|
B |----------------------|-----------------------|
G |-----------7----------|-----------9-----------|
D |-----9-------9--------|-----7-------7---------|
A |---9---9-------9------|---9---9-------9-------|
E |----------------------|-----------------------|


      Em                      G
E |----------------------|-----------------------|
B |----------------------|-----------------------|
G |-----------9----------|-------------12--------|
D |-----9-------9--------|------12-------12------|
A |---7---7-------7------|---10----10------10----|
E |----------------------|-----------------------|

     Bm                     F#m
E |----------------------|-----------------------|
B |----------------------|-----------------------|
G |-----------7----------|-----------9-----------|
D |-----9-------9--------|-----7-------7---------|
A |---9---9-------9------|---9---9-------9-------|
E |----------------------|-----------------------|

      Em                      G
E |----------------------|-----------------------|
B |----------------------|-----------------------|
G |-----------9----------|-------------12--------|
D |-----9-------9--------|------12---------------|
A |---7---7-------7------|---10----10------------|
E |----------------------|-----------------------|

Verso 1(Con los mismos acordes, el arpegio lleva pequeñas modificaciones)
       Bm F#m Em G

    Te puedes vender
    Cualquier oferta es buena
    SI quieres poder
    Que fácil es
    Abrir tanto la boca para opinar
    Y si te piensas echar atrás
    Tienes muchas huellas que borrar

Puente (Con distorsión)

   Déjame, que yo no tengo la culpa de verte caer
   Si yo no tengo la culpa de verte caer

Puente con distorsión
     B5                 B5
E |-----------------|-----------------|
B |-----------------|-----------------|
G |---4~------------|---4~------------|
D |---4~------------|---4~------------|
A |---2~------------|---2~------------|
E |-----------------|-----------------|

      D5               G5
E |-----------------|-------3-2-------|
B |-----------------|-----------3-----|
G |---7~------------|------------4----|
D |---7~------------|---5~------------|
A |---5~------------|---5~------------|
E |-----------------|---3~------------|

     B5                 B5
E |-----------------|-----------------|
B |-----------------|-----------------|
G |---4~------------|---4~------------|
D |---4~------------|---4~------------|
A |---2~------------|---2~------------|
E |-----------------|-----------------|


      D5               G5
E |-----------------|------------------|
B |-----------------|------------------|
G |---7~------------|------------------|
D |---7~------------|---5~-------------|
A |---5~------------|---5~-------------|
E |-----------------|---3~-------------|

Como el Intro:
      Bm
E |---7-7-7-7-7-7-7-7----|---7-7-7-7-7-7-7-7----|
B |---7-7-7-7-7-7-7-7----|---7-7-7-7-7-7-7-7----|
G |---7-7-7-7-7-7-7-7----|---7-7-7-7-7-7-7-7----|
D |---9-9-9-9-9-9-9-9----|---9-9-9-9-9-9-9-9----|
A |---9-9-9-9-9-9-9-9----|---9-9-9-9-9-9-9-9----|
E |---7-7-7-7-7-7-7-7----|---7-7-7-7-7-7-7-7----|

      Bm                     G
E |---7-7-7-7-7-7-7-7----|---3-3-3-3-3----------|
B |---7-7-7-7-7-7-7-7----|---3-3-3-3-3----------|
G |---7-7-7-7-7-7-7-7----|---0-0-0-0-0----------|
D |---9-9-9-9-9-9-9-9----|---x-x-x-x-x----------|
A |---9-9-9-9-9-9-9-9----|---x-x-x-x-x----------|
E |---7-7-7-7-7-7-7-7----|---x-x-x-x-x----------|
      Bm
E |---7-7-7-7-7-7-7-7----|---7-7-7-7-7-7-7-7----|
B |---7-7-7-7-7-7-7-7----|---7-7-7-7-7-7-7-7----|
G |---7-7-7-7-7-7-7-7----|---7-7-7-7-7-7-7-7----|
D |---9-9-9-9-9-9-9-9----|---9-9-9-9-9-9-9-9----|
A |---9-9-9-9-9-9-9-9----|---9-9-9-9-9-9-9-9----|
E |---7-7-7-7-7-7-7-7----|---7-7-7-7-7-7-7-7----|

      Bm                     A
E |---7-7-7-7-7-7-7-7----|---5-5---------|
B |---7-7-7-7-7-7-7-7----|---5--5--------|
G |---7-7-7-7-7-7-7-7----|---6---6-------|
D |---9-9-9-9-9-9-9-9----|---7----7------|
A |---9-9-9-9-9-9-9-9----|---7-----------|
E |---7-7-7-7-7-7-7-7----|---5-----------|


Verso 2 (Con el arpegio del Intro)
       Bm F#m Em G

   Pierdes la fe
   Cualquier esperanza es vana
   Y no se que creer
   Pepepepepero olvídame que nadie te ha llamado
   Y ya estas otra vez


Puente (Con distorsión)

   Déjame, que yo no tengo la culpa de verte caer
   Si yo no tengo la culpa de verte caer


Puente con distorsión
     B5                 B5
E |-----------------|-----------------|
B |-----------------|-----------------|
G |---4~------------|---4~------------|
D |---4~------------|---4~------------|
A |---2~------------|---2~------------|
E |-----------------|-----------------|


      D5               G5
E |-----------------|-------3-2-------|
B |-----------------|-----------3-----|
G |---7~------------|------------4----|
D |---7~------------|---5~------------|
A |---5~------------|---5~------------|
E |-----------------|---3~------------|

     B5                 B5
E |-----------------|-----------------|
B |-----------------|-----------------|
G |---4~------------|---4~------------|
D |---4~------------|---4~------------|
A |---2~------------|---2~------------|
E |-----------------|-----------------|

      D5               G5
E |-----------------|------------------|
B |-----------------|------------------|
G |---7~------------|------------------|
D |---7~------------|---5~-------------|
A |---5~------------|---5~-------------|
E |-----------------|---3~-------------|

Estribillo

   Entre dos tierras estas
   Y no dejas aire que respirar
   Entre dos tierras estas
   Y no dejas aire que respirar


Estribillo
      F     Cm               Cm
E |---1-----------3-------|----------3----------|
B |---1-------------4-----|------------4--------|
G |---2---------5-----5---|-------5------5------|
D |---3-------5-----------|-----5---------------|
A |---3-----3-------------|---3-----------------|
E |---1-------------------|---------------------|

      Gm                      Gm
E |---------3-------------|----------3----------|
B |-----------3-----------|------------3--------|
G |-------3-----3---------|-------3------3------|
D |-----5-----------------|-----5---------------|
A |---5-------------------|---5-----------------|
E |-----------------------|---------------------|

      Cm                      Cm
E |---------3-------------|----------3----------|
B |-----------4-----------|------------4--------|
G |-------5-----5---------|-------5------5------|
D |-----5-----------------|-----5---------------|
A |---3-------------------|---3-----------------|
E |-----------------------|---------------------|

      Gm                      Gm
E |---------3-------------|----------3----------|
B |-----------3-----------|------------3--------|
G |-------3-----3---------|-------3------3------|
D |-----5-----------------|-----5---------------|
A |---5-------------------|---5-----------------|
E |-----------------------|---------------------|

      Gm  F#m F               Cm
E |-----------------------|----------3----------|
B |-----------------------|------------4--------|
G |-----------------------|-------5------5------|
D |---5---4---3-----------|-----5---------------|
A |---5---4---3-----------|---3-----------------|
E |---3---2---1-----------|---------------------|

      Cm                      Gm
E |----------3------------|----------3----------|
B |------------4----------|------------3--------|
G |-------5------5--------|-------3------3------|
D |-----5-----------------|-----5---------------|
A |---3-------------------|---5-----------------|
E |-----------------------|---------------------|

      Gm                      G
E |---3-3-3-3-3-3-3-------|---3-3-3-3-3-3-3-3---|
B |---3-3-3-3-3-3-3-------|---3-3-3-3-3-3-3-3---|
G |---3-3-3-3-3-3-3-------|---4-4-4-4-4-4-4-4---|
D |---5-5-5-5-5-5-5-------|---5-5-5-5-5-5-5-5---|
A |---5-5-5-5-5-5-5-------|---5-5-5-5-5-5-5-5---|
E |---3-5-5-5-5-5-5-------|---3-3-3-3-3-3-3-3---|

Verso 3 (Con los mismos acordes, el arpegio lleva pequeñas modificaciones)
       Bm F#m Em G

   Déjalo ya
   No seas membrillo y permite pasar
   Y si no piensas echar atrás
   Tienes mucho barro que tragar

Puente (Con distorsión)

   Déjame, que yo no tengo la culpa de verte caer
   Si yo no tengo la culpa de verte caer

Puente con distorsión
     B5                 B5
E |-----------------|-----------------|
B |-----------------|-----------------|
G |---4~------------|---4~------------|
D |---4~------------|---4~------------|
A |---2~------------|---2~------------|
E |-----------------|-----------------|

      D5               G5
E |-----------------|-------3-2-------|
B |-----------------|-----------3-----|
G |---7~------------|------------4----|
D |---7~------------|---5~------------|
A |---5~------------|---5~------------|
E |-----------------|---3~------------|

     B5                 B5
E |-----------------|-----------------|
B |-----------------|-----------------|
G |---4~------------|---4~------------|
D |---4~------------|---4~------------|
A |---2~------------|---2~------------|
E |-----------------|-----------------|


      D5               G5
E |-----------------|------------------|
B |-----------------|------------------|
G |---7~------------|------------------|
D |---7~------------|---5~-------------|
A |---5~------------|---5~-------------|
E |-----------------|---3~-------------|


Estribillo

   Entre dos tierras estas
   Y no dejas aire que respirar
   Entre dos tierras estas
   Y no dejas aire que respirar


Estribillo
      F     Cm               Cm
E |---1-----------3-------|----------3----------|
B |---1-------------4-----|------------4--------|
G |---2---------5-----5---|-------5------5------|
D |---3-------5-----------|-----5---------------|
A |---3-----3-------------|---3-----------------|
E |---1-------------------|---------------------|

      Gm                      Gm
E |---------3-------------|----------3----------|
B |-----------3-----------|------------3--------|
G |-------3-----3---------|-------3------3------|
D |-----5-----------------|-----5---------------|
A |---5-------------------|---5-----------------|
E |-----------------------|---------------------|

      Cm                      Cm
E |---------3-------------|----------3----------|
B |-----------4-----------|------------4--------|
G |-------5-----5---------|-------5------5------|
D |-----5-----------------|-----5---------------|
A |---3-------------------|---3-----------------|
E |-----------------------|---------------------|

      Gm                      Gm
E |---------3-------------|----------3----------|
B |-----------3-----------|------------3--------|
G |-------3-----3---------|-------3------3------|
D |-----5-----------------|-----5---------------|
A |---5-------------------|---5-----------------|
E |-----------------------|---------------------|

      Gm  F#m F               Cm
E |-----------------------|----------3----------|
B |-----------------------|------------4--------|
G |-----------------------|-------5------5------|
D |---5---4---3-----------|-----5---------------|
A |---5---4---3-----------|---3-----------------|
E |---3---2---1-----------|---------------------|

      Cm                      Gm
E |----------3------------|----------3----------|
B |------------4----------|------------3--------|
G |-------5------5--------|-------3------3------|
D |-----5-----------------|-----5---------------|
A |---3-------------------|---5-----------------|
E |-----------------------|---------------------|

      Gm                      G
E |---3-3-3-3-3-3-3-------|---3-3-3-3-3-3-3-3---|
B |---3-3-3-3-3-3-3-------|---3-3-3-3-3-3-3-3---|
G |---3-3-3-3-3-3-3-------|---4-4-4-4-4-4-4-4---|
D |---5-5-5-5-5-5-5-------|---5-5-5-5-5-5-5-5---|
A |---5-5-5-5-5-5-5-------|---5-5-5-5-5-5-5-5---|
E |---3-5-5-5-5-5-5-------|---3-3-3-3-3-3-3-3---|

Solo
e|-------------|-------------|---------------------------|
B|-------------|-------------|-----------8-7h8p7---------|
G|-------7-----|-------9-----|-------9-----------9---7---|
D|---9-----9---|---7-----7---|---7-----------------9---9-|
A|-9---9-----9-|-9---9-----9-|-9---9---------------------|
E|-------------|-------------|---------------------------|

e|-------------------------|-------------------------|
B|-------------------------|-------------------------|
G|-------7---7-9b11r9p7-9~-|-----6-9--7-6-7-6h7------|
D|---9-----9---------------|---7----------------9----|
A|-9---9-------------------|-9--------------------9~-|
E|-------------------------|-------------------------|

e|-----------------|-----------------|
B|-----------------|-----------------|
G|-----------------|-----------------|
D|-9-9-9-9-9-9-9-9-|-7-7-7-7-7-7-7-7-|
A|-9-9-9-9-9-9-9-9-|-7-7-7-7-7-7-7-7-|
E|-7-7-7-7-7-7-7-7-|-5-5-5-5-5-5-5-5-|

-----------------|-----------------|
-----------------|-----------------|
-----------------|-----------------|
-5-5-5-5-4-4-4-4-|-9-9-9-9-9-9-9-9-|
-5-5-5-5-4-4-4-4-|-9-9-9-9-9-9-9-9-|
-3-3-3-3-2-2-2-2-|-7-7-7-7-7-7-7-7-|


e|-------------------------|-----------------|
B|-------------------------|-----------------|
G|-11-11-11-11-11-11-11-11-|-7-7-7-7-7-7-7-7-|
D|-11-11-11-11-11-11-11-11-|-7-7-7-7-7-7-7-7-|
A|-9--9--9--9--9--9--9--9--|-5-5-5-5-5-5-5-5-|
E|-------------------------|-----------------|

-------------------------------------------|
-------------------------------------------|
-12-12-12-12-12-12-------------------------|
-12-12-12-12-12-12-----12----11----9----7~-|
-10-10-10-10-10-10--10----10----10---10----|
-------------------------------------------|

e|-------------------------------------------|
B|-------------------------------------------|
G|-------------------------------------------|
D|-9-9-9-5-9-9-9-9-7-9-9-9-9-7-9-9-9-9-7-9-9-|
A|-9-9-9-7-9-9-9-9-7-9-9-9-9-7-9-9-9-9-7-9-9-|
E|-7-7-7-5-7-7-7-7-5-7-7-7-7-5-7-7-7-7-5-7-7-|

e|-----------10-------|-----------10-9----|----------10-----|
B|-----12-------12----|-----10---------10-|----12-------12~-|
G|-/11----11-------11-|-/11----11---------|-11----11--------|
D|--------------------|-------------------|-----------------|
A|--------------------|-------------------|-----------------|
E|--------------------|-------------------|-----------------|

e|------------------------------|-------------------------|
B|-10-8-7-----------------------|-------------------------|
G|--------9-7-6-----------------|-------7---7-9b11r9p7-9~-|
D|--------------9-7-------------|---9-----9---------------|
A|------------------10-9-7------|-9---9-------------------|
E|-------------------------10-7-|-------------------------|

-------------------------|
-------------------------|
-----6-9--7-6-7-6h7------|
---7----------------9----|
-9--------------------9~-|
-------------------------|

e|-------------------------|-------------------------|
B|-------------------------|-------------------------|
G|-------7---7-9b11r9p7-9~-|-----6-9--7-6-7-6h7------|
D|---9-----9---------------|---7----------------9----|
A|-9---9-------------------|-9--------------------9~-|
E|-------------------------|-------------------------|

e|-------------------------------------------|
B|-------------------------------------------|
G|-------------------------------------------|
D|-9-9-9-5-9-9-9-9-7-9-9-9-9-7-9-9-9-9-7-9-9-|
A|-9-9-9-7-9-9-9-9-7-9-9-9-9-7-9-9-9-9-7-9-9-|
E|-7-7-7-5-7-7-7-7-5-7-7-7-7-5-7-7-7-7-5-7-7-|

e|---------------------------15----15----15-|
B|-----15-17b19r17p15-----------------------|
G|-/16----------------16--15----15----15----| esta parte  x2
D|------------------------------------------|
A|------------------------------------------|
E|------------------------------------------|

e|-----------------------|-----------------------------|
B|-----------------------|-----------------------------|
G|---7-9-9b11r9p7--------|----7-9-9b11r9p7-------------|
D|-9--------------9-8s4~-|-/9--------------9-8--4-4-4--|
A|-----------------------|----------------------4-4-4--|
E|-----------------------|----------------------2-2-2--|
                                        Se queda en F#m
Puente (Con distorsión)

   Déjame, que yo no tengo la culpa de verte caer
   Si yo no tengo la culpa de verte caer

Puente con distorsión
     B5                 B5
E |-----------------|-----------------|
B |-----------------|-----------------|
G |---4~------------|---4~------------|
D |---4~------------|---4~------------|
A |---2~------------|---2~------------|
E |-----------------|-----------------|

      D5               G5
E |-----------------|-------3-2-------|
B |-----------------|-----------3-----|
G |---7~------------|------------4----|
D |---7~------------|---5~------------|
A |---5~------------|---5~------------|
E |-----------------|---3~------------|


     B5                 B5
E |-----------------|-----------------|
B |-----------------|-----------------|
G |---4~------------|---4~------------|
D |---4~------------|---4~------------|
A |---2~------------|---2~------------|
E |-----------------|-----------------|

      D5               G5
E |-----------------|-----------------|
B |-----------------|-----------------|
G |---7~------------|-----------------|
D |---7~------------|---5~------------|
A |---5~------------|---5~------------|
E |-----------------|---3~------------|

Estribillo

   Entre dos tierras estas
   Y no dejas aire que respirar
   Entre dos tierras estas
   Y no dejas aire que respirar

      F     Cm               Cm
E |---1-----------3-------|----------3----------|
B |---1-------------4-----|------------4--------|
G |---2---------5-----5---|-------5------5------|
D |---3-------5-----------|-----5---------------|
A |---3-----3-------------|---3-----------------|
E |---1-------------------|---------------------|

      Gm                      Gm
E |---------3-------------|----------3----------|
B |-----------3-----------|------------3--------|
G |-------3-----3---------|-------3------3------|
D |-----5-----------------|-----5---------------|
A |---5-------------------|---5-----------------|
E |-----------------------|---------------------|

      Cm                      Cm
E |---------3-------------|----------3----------|
B |-----------4-----------|------------4--------|
G |-------5-----5---------|-------5------5------|
D |-----5-----------------|-----5---------------|
A |---3-------------------|---3-----------------|
E |-----------------------|---------------------|

      Gm                      Gm
E |---------3-------------|----------3----------|
B |-----------3-----------|------------3--------|
G |-------3-----3---------|-------3------3------|
D |-----5-----------------|-----5---------------|
A |---5-------------------|---5-----------------|
E |-----------------------|---------------------|

      Gm  F#m F               Cm
E |-----------------------|----------3----------|
B |-----------------------|------------4--------|
G |-----------------------|-------5------5------|
D |---5---4---3-----------|-----5---------------|
A |---5---4---3-----------|---3-----------------|
E |---3---2---1-----------|---------------------|


      Cm                      Gm
E |----------3------------|----------3----------|
B |------------4----------|------------3--------|
G |-------5------5--------|-------3------3------|
D |-----5-----------------|-----5---------------|
A |---3-------------------|---5-----------------|
E |-----------------------|---------------------|

      Gm                      G
E |---3-3-3-3-3-3-3-------|---3-3-3-3-3-3-3-3---|
B |---3-3-3-3-3-3-3-------|---3-3-3-3-3-3-3-3---|
G |---3-3-3-3-3-3-3-------|---4-4-4-4-4-4-4-4---|
D |---5-5-5-5-5-5-5-------|---5-5-5-5-5-5-5-5---|
A |---5-5-5-5-5-5-5-------|---5-5-5-5-5-5-5-5---|
E |---3-5-5-5-5-5-5-------|---3-3-3-3-3-3-3-3---|

      Bm
E |---7~------|
B |---7~------|
G |---7~------|
D |---9~------|
A |---9~------|
E |---7~------|

            
            
Suggest correction
Creating personal tab
Creating personal tab
You can edit any tab online and save it as your Personal.

You can edit, replace or remove any tab part or add personal notes – all changes will be seen only by you.

Personal tabs can be accessed anytime from any device, even offline.
Learn more »
Give kudos to tab author, rate the tab!
1 2 3 4 5
comments
print report bad tab
guest
Wanna post a correction for this tab? Suggest correction