Oops, an error
Loading. Please wait.

Entre Dos Tierras drums

version 1
version 1

Whole song

Interactive

237 views 1 this week
no commentswrite comment
1 2 3 4 5
3 more votes to show rating
add to favorites
×
Save as Personal and add changes to this tab that will be seen only by you. Learn more ›
×
You can save this tab as Personal to edit and correct it or add notes. All changes will be seen only by you. Learn more »
launch autoscroll
font size
0
reset
guitar tuner
backing track
0:00
0:00
edit
Autoscroll
slow
fast
+/-
esc
set tempo
stop
NO ESTA DIFICIL, TENGAN PACIENCIA.

ATTE: CHRISTIAN


C||------|------|------|------|------|------|--36--38--36--38--36--38--36--38--|
C||------|------|------|------|------|------|------42------42------42------42--|
C||------|------|------|------|------|------|----------------------------------|
C||------|------|------|------|------|------|----------------------------------|
C||------|------|------|------|------|------|----------------------------------|
C||------|------|------|------|------|------|----------------------------------|


--36--38--36--38--36--38--36--38--|--36--38--36--38--36--38--36--38--|
------42------42------42------49--|------42------42------42------42--|
----------------------------------|----------------------------------|
----------------------------------|----------------------------------|
----------------------------------|----------------------------------|
----------------------------------|----------------------------------|


--36--38--36--38--36--38--36--38-38-|--36--38--36--38--36--38--36--38--|
------42------42------42------49-49-|------42------42------42------42--|
------------------------------------|----------------------------------|
------------------------------------|----------------------------------|
------------------------------------|----------------------------------|
------------------------------------|----------------------------------|


--36--38--36--38--36--38--36--38-38-|--36--38--36--38--36--38--36--38--|
------42------42------42------49-49-|------42------42------42------42--|
------------------------------------|----------------------------------|
------------------------------------|----------------------------------|
------------------------------------|----------------------------------|
------------------------------------|----------------------------------|


--36--38--36--38--36--38--38-38-38-38-38-38-38-|
------42------42------42--42-------------------|
-----------------------------------------------|
-----------------------------------------------|
-----------------------------------------------|
-----------------------------------------------|


--36--38--36--38--36--38--36--38--|--36--38--36--38--36--38--36--38--|
--49--55--55--55--49--55--55--55--|--49--55--55--55--49--55--55--55--|
----------------------------------|----------------------------------|
----------------------------------|----------------------------------|
----------------------------------|----------------------------------|
----------------------------------|----------------------------------|


--36--38--36--38--36--38--36--38--|--36--38--36--38--36--38--36--38--|
--49--55--55--49--55--49--55--49--|--55--49--55--49--55--49--55--49--|
----------------------------------|----------------------------------|
----------------------------------|----------------------------------|
----------------------------------|----------------------------------|
----------------------------------|----------------------------------|


--36--38--36--38--36--38--36--38--|--36--38--36--38--36--38--36--38--|
--57--46------46------46------46--|------46------46------46------49--|
----------------------------------|----------------------------------|
----------------------------------|----------------------------------|
----------------------------------|----------------------------------|
----------------------------------|----------------------------------|


--36--38--36--38--36--38--36--38--|--36--38--36--38--36--38--36--38--|
--57--46------46------46------46--|------46------46------46------49--|
----------------------------------|----------------------------------|
----------------------------------|----------------------------------|
----------------------------------|----------------------------------|
----------------------------------|----------------------------------|


--36--38--36--38--36--38--36--38--|--36--38--36--38--36--38--36--38--|
--57--46------46------46------46--|------46------46------46------49--|
----------------------------------|----------------------------------|
----------------------------------|----------------------------------|
----------------------------------|----------------------------------|
----------------------------------|----------------------------------|


--36--38--36--38--36--38--36--38--|--36--38--36--38--36-38-38-38-38-38-38-38-|
--57--46------46------46------46--|------46------46-----46-46-46-46-46-46-46-|
----------------------------------|------------------------------------------|
----------------------------------|------------------------------------------|
----------------------------------|------------------------------------------|
----------------------------------|------------------------------------------|


--36--38--36--38--36--38--36--38--|--36--38--36--38--36--38--36--38--|
--57--46------46------46------46--|------46------46------46------49--|
----------------------------------|----------------------------------|
----------------------------------|----------------------------------|
----------------------------------|----------------------------------|
----------------------------------|----------------------------------|


--36--38--36--38--36--38--36--38--|
--57--46------46------46------46--|
----------------------------------|
----------------------------------|
----------------------------------|
----------------------------------|


--36--38--36--38--38--38--38--38--38--38--38--38--38--38--38-|
------46------46---------------------------------------------|
-------------------------------------------------------------|
-------------------------------------------------------------|
-------------------------------------------------------------|
-------------------------------------------------------------|


--36--38--36--38-38---38--36--38--|--36--38--36--38-38---38--36--38-38-|
--57--57--57--57-49---57--57--57--|--57--57--57--57-49---57--57--------|
----------------------------------|------------------------------------|
----------------------------------|------------------------------------|
----------------------------------|------------------------------------|
----------------------------------|------------------------------------|


--36--38--36--38-38---38--36--38--|--36--38--36--38-38---38--36--38--|
--57--57--57--57-49---57--57--57--|--57--57--57--57-49---57--57--57--|
----------------------------------|----------------------------------|
----------------------------------|----------------------------------|
----------------------------------|----------------------------------|
----------------------------------|----------------------------------|


--36--38--36--38--36--38--36--38--|--36--38--36--38--36--38--36--38--|
------42------42------42------42--|------42------42------42------42--|
----------------------------------|----------------------------------|
----------------------------------|----------------------------------|
----------------------------------|----------------------------------|
----------------------------------|----------------------------------|


--36--38--36--38--36--38--36--38--|
------49------42------42------42--|
----------------------------------|
----------------------------------|
----------------------------------|
----------------------------------|


--36--38--36--38--36--38--38-36-47-36-38-36-47--|
------42------42------42------------------------|
------------------------------------------------|
------------------------------------------------|
------------------------------------------------|
------------------------------------------------|


--36--38--36--38--36--38--36--38--|--36--38--36--38--36--38--36--38--|
--49--57--57--57--49--42------42--|------42------42------42------42--|
----------------------------------|----------------------------------|
----------------------------------|----------------------------------|
----------------------------------|----------------------------------|
----------------------------------|----------------------------------|


--36--38--36--38--36--38--36--38--|--36--38--36--38--36-38-38-38-38-38-38-38-|
------42------42------42------42--|------42------42-----49-49-49-49-49-49-49-|
----------------------------------|------------------------------------------|
----------------------------------|------------------------------------------|
----------------------------------|------------------------------------------|
----------------------------------|------------------------------------------|


--36--38--36--38--36--38--36--38--|--36--38--36--38--36--38--36--38--|
------42------42------42------42--|------42------42------42------49--|
----------------------------------|----------------------------------|
----------------------------------|----------------------------------|
----------------------------------|----------------------------------|
----------------------------------|----------------------------------|


--36--38--36--38--36--38--36--38--|
--57--42------42------42------42--|
----------------------------------|
----------------------------------|
----------------------------------|
----------------------------------|


--36--38--36--38--38--38--38--38--38--38--38--38--38--38--38-|
------46------46---------------------------------------------|
-------------------------------------------------------------|
-------------------------------------------------------------|
-------------------------------------------------------------|
-------------------------------------------------------------|


--36--38--36--38-38---38--36--38--|--36--38--36--38-38---38--36--38-38-|
--57--57--57--57-49---57--57--57--|--57--57--57--57-49---57--57--------|
----------------------------------|------------------------------------|
----------------------------------|------------------------------------|
----------------------------------|------------------------------------|
----------------------------------|------------------------------------|


--36--38--36--38-38---38--36--38--|--36--38--36--38-38---38--36--38--|
--57--57--57--57-49---57--57--57--|--57--57--57--57-49---57--57--57--|
----------------------------------|----------------------------------|
----------------------------------|----------------------------------|
----------------------------------|----------------------------------|
----------------------------------|----------------------------------|


--46-42-42-42-42-42-42-42-46-42-42-42-42-42-42-42-46-42-42-42-42-42-42-42-46-42-
--36----------38----------36----------38----------36----------38----------36----
--------------------------------------------------------------------------------
--------------------------------------------------------------------------------
--------------------------------------------------------------------------------
--------------------------------------------------------------------------------


--46-42-42-42-42-42-42-42-46-42-42-42-42-42-42-42-46-42-42-42-42-42-42-42-46-42-
--36----------38----------36----------38----------36----------38----------36----
--------------------------------------------------------------------------------
--------------------------------------------------------------------------------
--------------------------------------------------------------------------------
--------------------------------------------------------------------------------


--46-42-42-42-42-42-42-42-46-42-42-42-42-42-42-42-46-42-42-42-42-42-42-42-46-42-
--36----------38----------36----------38----------36----------38----------36----
--------------------------------------------------------------------------------
--------------------------------------------------------------------------------
--------------------------------------------------------------------------------
--------------------------------------------------------------------------------


--46-42-42-42-42-42-42-42-46-42-42-42-42-42-42-42-46-42-42-42-42-42-42-42-46-42-
--36----------38----------36----------38----------36----------38----------36----
--57----------------------------------------------------------------------------
--------------------------------------------------------------------------------
--------------------------------------------------------------------------------
--------------------------------------------------------------------------------


--46-42-42-42-42-42-42-42-46-42-42-42-42-42-42-42-46-42-42-42-42-42-42-42-46-42-
--36----------38----------36----------38----------36----------38----------36----
--------------------------------------------------------------------------------
--------------------------------------------------------------------------------
--------------------------------------------------------------------------------
--------------------------------------------------------------------------------


--46-42-42-42-42-42-42-42-46-42-42-42-42-42-42-42-46-42-42-42-42-42-42-42-46-42-
--36----------38----------36----------38----------36----------38----------36----
--------------------------------------------------------------------------------
--------------------------------------------------------------------------------
--------------------------------------------------------------------------------
--------------------------------------------------------------------------------


--46-42-42-42-42-42-42-42-46-42-42-42-42-42-42-42-46-42-42-42-42-42-42-42-46-42-
--36----------38----------36----------38----------36----------38----------36----
--------------------------------------------------------------------------------
--------------------------------------------------------------------------------
--------------------------------------------------------------------------------
--------------------------------------------------------------------------------


--46-42-42-42-42-42-42-42-46-42-42-42-42-42-42-42-46-42-42-42-42-42-42-42-46-42-
--36----------38----------36----------38----------36----------38----------36----
--57----------------------------------------------------------------------------
--------------------------------------------------------------------------------
--------------------------------------------------------------------------------
--------------------------------------------------------------------------------


--36--36--36--36--36--36--36--36-59-|
------------------------------------|
------------------------------------|
------------------------------------|
------------------------------------|
------------------------------------|


--36-59-36-59-36-59-36-59-36-59-36-59-36-59-38--|
--------------------------------------------57--|
------------------------------------------------|
------------------------------------------------|
------------------------------------------------|
------------------------------------------------|


--36--38--36--38--36--38--36--38--|--36--38--36--38--36--38--36--38--|
--57--46------46------46------46--|------46------46------46------49--|
----------------------------------|----------------------------------|
----------------------------------|----------------------------------|
----------------------------------|----------------------------------|
----------------------------------|----------------------------------|


--36--38--36--38--36--38--36--38--|--36--38--36--38--36-38-38-38-38-38-38-38-|
--57--46------46------46------46--|------46------46-----49-49-49-49-49-49-49-|
----------------------------------|------------------------------------------|
----------------------------------|------------------------------------------|
----------------------------------|------------------------------------------|
----------------------------------|------------------------------------------|


--36--38--36--38--36--38--36--38--|--36--38--36--38--36--38--36--38--|
--57--46------46------46------46--|------46------46------46------49--|
----------------------------------|----------------------------------|
----------------------------------|----------------------------------|
----------------------------------|----------------------------------|
----------------------------------|----------------------------------|


--36--38--36--38--36--38--36--38--|
--57--46------46------46------46--|
----------------------------------|
----------------------------------|
----------------------------------|
----------------------------------|


--36--38--36--38--38--38--38--38--38--38--38--38--38--38--38-|
------46------46---------------------------------------------|
-------------------------------------------------------------|
-------------------------------------------------------------|
-------------------------------------------------------------|
-------------------------------------------------------------|


--36--38--36--38-38---38--36--38--|--36--38--36--38-38---38--36--38-38-|
--57--57--57--57-49---57--57--57--|--57--57--57--57-49---57--57--------|
----------------------------------|------------------------------------|
----------------------------------|------------------------------------|
----------------------------------|------------------------------------|
----------------------------------|------------------------------------|


--36--38--36--38-38---38--36--38--|--36--38--36--38-38---38--36--38--|
--57--57--57--57-49---57--57--57--|--57--57--57--57-49---57--57--57--|
----------------------------------|----------------------------------|
----------------------------------|----------------------------------|
----------------------------------|----------------------------------|
----------------------------------|----------------------------------|


--46-42-42-42-42-42-42-42-46-42-42-42-42-42-42-42-46-42-42-42-42-42-42-42-46-42-
--36----------38----------36----------38----------36----------38----------36----
--------------------------------------------------------------------------------
--------------------------------------------------------------------------------
--------------------------------------------------------------------------------
--------------------------------------------------------------------------------


--46-42-42-42-42-42-42-42-46-42-42-42-42-42-42-42-46-42-42-42-42-42-42-42-46-42-
--36----------38----------36----------38----------36----------38----------36----
--------------------------------------------------------------------------------
--------------------------------------------------------------------------------
--------------------------------------------------------------------------------
--------------------------------------------------------------------------------


--46-42-42-42-42-42-42-42-46-42-42-42-42-42-42-42-46-42-42-42-42-42-42-42-46-42-
--36----------38----------36----------38----------36----------38----------36----
--------------------------------------------------------------------------------
--------------------------------------------------------------------------------
--------------------------------------------------------------------------------
--------------------------------------------------------------------------------


--46-42-42-42-42-42-42-42-46-42-42-42-42-42-42-42-46-42-42-42-42-42-42-42-46-42-
--36----------38----------36----------38----------36----------38----------36----
--57----------------------------------------------------------------------------
--------------------------------------------------------------------------------
--------------------------------------------------------------------------------
--------------------------------------------------------------------------------


--46-42-42-42-42-42-42-42-46-42-42-42-42-42-42-42-46-42-42-42-42-42-42-42-46-42-
--36----------38----------36----------38----------36----------38----------36----
--------------------------------------------------------------------------------
--------------------------------------------------------------------------------
--------------------------------------------------------------------------------
--------------------------------------------------------------------------------


--46-42-42-42-42-42-42-42-46-42-42-42-42-42-42-42-46-42-42-42-42-42-42-42-46-42-
--36----------38----------36----------38----------36----------38----------36----
--------------------------------------------------------------------------------
--------------------------------------------------------------------------------
--------------------------------------------------------------------------------
--------------------------------------------------------------------------------


--46-42-42-42-42-42-42-42-46-42-42-42-42-42-42-42-46-42-42-42-42-42-42-42-46-42-
--36----------38----------36----------38----------36----------38----------36----
--------------------------------------------------------------------------------
--------------------------------------------------------------------------------
--------------------------------------------------------------------------------
--------------------------------------------------------------------------------


--46-42-42-42-42-42-42-42-46-42-42-42-42-42-42-42-46-42-42-42-42-42-42-42-46-42-
--36----------38----------36----------38----------36----------38----------36----
--57----------------------------------------------------------------------------
--------------------------------------------------------------------------------
--------------------------------------------------------------------------------
--------------------------------------------------------------------------------


--36--36--36--36--36--36--36--36--|
----------------------------------|
----------------------------------|
----------------------------------|
----------------------------------|
----------------------------------|


--40-40-40-40-40-40-40-40-40-40-40-40-40-40-40-40-40-40-40-40-40-40-40-40-40-40-
--------------------------------------------------------------------------------
--------------------------------------------------------------------------------
--------------------------------------------------------------------------------
--------------------------------------------------------------------------------
--------------------------------------------------------------------------------


--36--38--36--38--36--38--36--38--|--36--38--36--38--36--38--36--38--|
--57--46------46--57--46------46--|--57--46------46--57--46------46--|
----------------------------------|----------------------------------|
----------------------------------|----------------------------------|
----------------------------------|----------------------------------|
----------------------------------|----------------------------------|


--36--38--36--38--36--38--36--38--|--36--38--36--38--36--38--36--38--|
--57--46------46--57--46------46--|--57--46------46--57--46------46--|
----------------------------------|----------------------------------|
----------------------------------|----------------------------------|
----------------------------------|----------------------------------|
----------------------------------|----------------------------------|


--36-36-38--36-36-38--36-36-38--36-36-38--|
--46----46--46----46--46----46--46----46--|
------------------------------------------|
------------------------------------------|
------------------------------------------|
------------------------------------------|


--36-36-38-38-36-36-38--36-38-36--38--38--|
--46----46-46-46----46--46-57-----57--57--|
------------------------------------------|
------------------------------------------|
------------------------------------------|
------------------------------------------|


--36-36-38--36-36-38--36-36-38--36-36-38--|
--46----46--46----46--46----46--46----46--|
------------------------------------------|
------------------------------------------|
------------------------------------------|
------------------------------------------|


--36-36-38--36-36-38--36-36-38--36-38-47-47-45-41-|
--46----46--46----46--46----46--46----------------|
--------------------------------------------------|
--------------------------------------------------|
--------------------------------------------------|
--------------------------------------------------|


--36--38--36--38-38-36--38--36--38--|--36--38--36--38-38-36--38--36--38--|
--49--49--49--49-57-49--49--49--49--|--57--49--49--49-57-49--49--49--49--|
------------------------------------|------------------------------------|
------------------------------------|------------------------------------|
------------------------------------|------------------------------------|
------------------------------------|------------------------------------|


--36-36-38--36-36-38--36-36-38--36-36-38--|--36-36-38--36-36-38--|
--42-42-46--42-42-46--42-42-46--42-42-46--|--49-42-46--42-42-46--|
------------------------------------------|----------------------|
------------------------------------------|----------------------|
------------------------------------------|----------------------|
------------------------------------------|----------------------|


--50-50-48-48-48-48-47-47-45-43-41-41-|
--------------------------------------|
--------------------------------------|
--------------------------------------|
--------------------------------------|
--------------------------------------|


--36-36-38--36-36-38--36-36-38--36-36-38--|
--46----46--42-42-46--42-42-46--42-42-49--|
------------------------------------------|
------------------------------------------|
------------------------------------------|
------------------------------------------|


--36-36-38--36-36-38--36-36-38--36-38-38--|
--57-42-46--42-42-46--42-42-46--42-49-49--|
------------------------------------------|
------------------------------------------|
------------------------------------------|
------------------------------------------|


--36-36-38--36-36-38--36-36-38--36-36-38--|
--42-42-46--42-42-46--42-42-46--42-42-49--|
------------------------------------------|
------------------------------------------|
------------------------------------------|
------------------------------------------|


--36-36-38--36-36-38--36-36-38--36--47--|--36--38--36--38-38---38--36--38--|
--57-42-46--42-42-46--42-42-46--46------|--49--46--46--49-46---46--46--46--|
----------------------------------------|----------------------------------|
----------------------------------------|----------------------------------|
----------------------------------------|----------------------------------|
----------------------------------------|----------------------------------|


--36--38--36--38-38---38--36--38--|--36-36-38--36-36-38--36-36-38--36-36-38--|
--49--46--46--49-46---46--46--46--|--42-42-46--42-42-46--42-42-46--42-42-46--|
----------------------------------|------------------------------------------|
----------------------------------|------------------------------------------|
----------------------------------|------------------------------------------|
----------------------------------|------------------------------------------|


--36-36-38--36-36-38--36-36-38--36-36-38--|
--57-42-46--42-42-46--42-42-46--42-42-46--|
------------------------------------------|
------------------------------------------|
------------------------------------------|
------------------------------------------|


--36-36-38--36-36-38--36-36-38--38---38-|
--42-42-46--42-42-46--42-42-46--49---57-|
----------------------------------------|
----------------------------------------|
----------------------------------------|
----------------------------------------|


--36-36-38--36-36-38--36-36-38--38---38-|
--42-42-46--42-42-46--42-42-46--49---57-|
----------------------------------------|
----------------------------------------|
----------------------------------------|
----------------------------------------|


--36--38--36--38--36--38--38-38-38-38-38-38-|--36--38--36--38-38---38--36--38--|
--46--46--46--46--46--46--------------------|--57--57--57--57-49---57--57--57--|
--------------------------------------------|----------------------------------|
--------------------------------------------|----------------------------------|
--------------------------------------------|----------------------------------|
--------------------------------------------|----------------------------------|


--36--38--36--38-38---38--36--38-38-|--36--38--36--38-38---38--36--38--|
--57--57--57--57-49---57--57--------|--57--57--57--57-49---57--57--57--|
------------------------------------|----------------------------------|
------------------------------------|----------------------------------|
------------------------------------|----------------------------------|
------------------------------------|----------------------------------|


--36--38--36--38-38---38--36--38--|
--57--57--57--57-49---57--57--57--|
----------------------------------|
----------------------------------|
----------------------------------|
----------------------------------|


--46-42-42-42-42-42-42-42-46-42-42-42-42-42-42-42-46-42-42-42-42-42-42-42-46-42-
--36----------38----------36----------38----------36----------38----------36----
--------------------------------------------------------------------------------
--------------------------------------------------------------------------------
--------------------------------------------------------------------------------
--------------------------------------------------------------------------------


--46-42-42-42-42-42-42-42-46-42-42-42-42-42-42-42-46-42-42-42-42-42-42-42-46-42-
--36----------38----------36----------38----------36----------38----------36----
--------------------------------------------------------------------------------
--------------------------------------------------------------------------------
--------------------------------------------------------------------------------
--------------------------------------------------------------------------------


--46-42-42-42-42-42-42-42-46-42-42-42-42-42-42-42-46-42-42-42-42-42-42-42-46-42-
--36----------38----------36----------38----------36----------38----------36----
--------------------------------------------------------------------------------
--------------------------------------------------------------------------------
--------------------------------------------------------------------------------
--------------------------------------------------------------------------------


--46-42-42-42-42-42-42-42-46-42-42-42-42-42-42-42-46-42-42-42-42-42-42-42-46-42-
--36----------38----------36----------38----------36----------38----------36----
--57----------------------------------------------------------------------------
--------------------------------------------------------------------------------
--------------------------------------------------------------------------------
--------------------------------------------------------------------------------


--46-42-42-42-42-42-42-42-46-42-42-42-42-42-42-42-46-42-42-42-42-42-42-42-46-42-
--36----------38----------36----------38----------36----------38----------36----
--------------------------------------------------------------------------------
--------------------------------------------------------------------------------
--------------------------------------------------------------------------------
--------------------------------------------------------------------------------


--46-42-42-42-42-42-42-42-46-42-42-42-42-42-42-42-46-42-42-42-42-42-42-42-46-42-
--36----------38----------36----------38----------36----------38----------36----
--------------------------------------------------------------------------------
--------------------------------------------------------------------------------
--------------------------------------------------------------------------------
--------------------------------------------------------------------------------


--46-42-42-42-42-42-42-42-46-42-42-42-42-42-42-42-46-42-42-42-42-42-42-42-46-42-
--36----------38----------36----------38----------36----------38----------36----
--------------------------------------------------------------------------------
--------------------------------------------------------------------------------
--------------------------------------------------------------------------------
--------------------------------------------------------------------------------


--46-42-42-42-42-42-42-42-46-42-42-42-42-42-42-42-46-42-42-42-42-42-42-42-38-38-
--36----------38----------36----------38----------36----------38----------------
--57----------------------------------------------------------------------------
--------------------------------------------------------------------------------
--------------------------------------------------------------------------------
--------------------------------------------------------------------------------


--46-42-42-42-42-42-42-42-46-42-42-42-42-42-42-42-46-42-42-42-42-42-42-42-46-42-
--36----------38----------36----------38----------36----------38----------36----
--------------------------------------------------------------------------------
--------------------------------------------------------------------------------
--------------------------------------------------------------------------------
--------------------------------------------------------------------------------


--46-42-42-42-42-42-42-42-46-42-42-42-42-42-42-42-50--48--47--45--43--41--48--47
--36----------38----------36----------38----------------------------------------
--------------------------------------------------------------------------------
--------------------------------------------------------------------------------
--------------------------------------------------------------------------------
--------------------------------------------------------------------------------


--38----------------|------------------|------------------|------------------|
--57----------------|------------------|------------------|------------------|
--------------------|------------------|------------------|------------------|
--------------------|------------------|------------------|------------------|
--------------------|------------------|------------------|------------------|
--------------------|------------------|------------------|------------------|


------------------||
------------------||
------------------||
------------------||
------------------||
------------------||

            
            
Suggest correction
Creating personal tab
Creating personal tab
You can edit any tab online and save it as your Personal.

You can edit, replace or remove any tab part or add personal notes – all changes will be seen only by you.

Personal tabs can be accessed anytime from any device, even offline.
Learn more »
Give kudos to tab author, rate the tab!
1 2 3 4 5
comments
print report bad tab
guest
Wanna post a correction for this tab? Suggest correction