Oops, an error
Loading. Please wait.

Flor De Loto bass

version 1
version 1

Whole song

Interactive

137 views 1 this week
no commentswrite comment
1 2 3 4 5
3 more votes to show rating
add to favorites
×
Save as Personal and add changes to this tab that will be seen only by you. Learn more ›
×
You can save this tab as Personal to edit and correct it or add notes. All changes will be seen only by you. Learn more »
launch autoscroll
font size
0
reset
guitar tuner
edit
Autoscroll
slow
fast
+/-
esc
set tempo
stop
Intro
=====

G|-----------------------------|
D|-----------------------------|
A|-----------------------------|
E|---------2/5-----------------|

1 Verse

Nunca fue tan breve una despedida
G|----------------------------------------------------------------------------|
D|--------------------------------------------------------4/7-----------------|
A|------------------------------------------------------------------------8/9-|
E|----------------------------------------------------------------------------|

nunca me crei que fue___ra de_finitiva
G|----------------------------------------------------------------------------|
D|---------------------------------------------4/7----------4/7---------------|
A|---------------------------------8/9------------8/9-------------------------|
E|----------------------------------------------------------------------------|

nunca quise tanto a nadie en mi  la vida
G|------------------------------------------------------------------------------|
D|--------------------------------------4------------------4/7-------------4/7--|
A|----------------9------------------------------------------------8/9----------|
E|------------------------------------------------------------------------------|

nunca a un ser extrano le llame mi familia
G|-----------------------------------------------------------------------------|
D|-----------------------------------4/7---------------------------------------|
A|---------------------8/9-----------------------------------------------------|
E|-----------------------------------------------------------------------------|

2 Verse

Nunca tuve fe en mi filosofia
G|-----------------------------------------------------------------|
D|--------------------4/7------------------------------4/7---------|
A|------------------------------------------8/9--------------------|
E|-----------------------------------------------------------------|

nunca tuve yo ni guru ni guia
G|-----------------------------------------------------------------|
D|------------------4------------------4---------------------------|
A|----------------------------9------------------------------------|
E|-------------------------------------------------2/5-------------|

nunca desprecie una causa perdida
G|-----------------------------------------------------------------------------|
D|----------------------4------------------------------4/7---------------4/7---|
A|-----------------------------------------------9-----------8/9---------------|
E|-----------------------------------------------------------------------------|

nunca negare que son mis favoritas
G|-----------------------------------------------------|
D|----------------4----------------4-------------------|
A|--------------------------9--------------------9-----|
E|-----------------------------------------------------|


Pre-Chorus

    Esta es mi flor de loto y yo era su sombra Esta es mi flor de loto mi 
G|------------------------------------------------------------------------|
D|------------------------------------------------------------------------|
A|------------------------------------------------------------------------|
E|----5--555-555-555---5-555-555-555---5-555-555-555---5-555-555----------|

    mundo no se acabara
G|-------------------------------------------------------|
D|-------------------------------------------------------|
A|--------------------------3--333-333-333---------------|
E|-5-555-555-555-----------------------------------------|
                                       
    tanto vagar para no conservar nunca nada,  queeee
G|---------------------------------------------------------|
D|---------------------------------------------------------|
A|-3-333-333-333---3-333-333-333---3-333-33--0-000-000-0---|
E|---------------------------------------------------------|

3 Verse

nunca una llama permanece ensendida
                                                     sp                sp
G|-------------------------------------------------------------------------|
D|-------------------------------------------------------------------------|
A|-------------------------------------------------------------------------|
E|--------------------------------------------------2/5-------------0205---|
nunca aguante su calor, nunca mas, nunca mas de un dia
G|-------------------------------------------------------------------------|
D|-------------------------------------------------------------------------|
A|-------------------------------------------------------------------------|
E|-----------------------------------------------5--------------1/2-----02-|
nunca soporte ser un alma invadida
                                                                        sp
G|-------------------------------------------------------------------------|
D|-------------------------------------------------------------------------|
A|-------------------------------------------------------------------------|
E|--------------------------------------------------2/5-------------0205---|
hasta que vi  frente a mi por quien yo moriria
G|-------------------------------------------------------------------------|
D|-------------------------------------------------------------------------|
A|-------------------------------------------------------------------------|
E|---------------------------------0(2)-------------- /5-------------------|    

Pre-chorus

Chorus
   F                   G                        Am
   querras tu rectificar las lineas de mis manos?
G|-----------------------------------------------------------------|
D|-----------------------------------------------------------------|
A|-----------------------------------------------------------------|
E|-1-1-1-1---1-/-3-3-3-3-3---3-3-3--3/5-5-5--5-5-5-5---------------|

     F                   G                   Am
   ¨quien esparcira al azar los pozos del cafe?
G|-----------------------------------------------------------------|
D|-----------------------------------------------------------------|
A|-----------------------------------------------------------------|
E|-1-1-1-1---1-/-3-3-3-3-3---3--3/5-5-5--5-5-5-5-------------------|

    Am               F            Dm             Am
¨   y que decia la bola de cristal cuando echo a rodar?
G|-----------------------------------------------------------------|
D|-----------------------------------------------------------------|
A|---------------------------------------5-5-5--5------------------|
E|-5-5-5-5--5-5/-1-1-1-1--1------------------5-5-5--5-5-5--5-5-5---|

    Am           F         Dm
  ¨que mas puedo necesitar?
G|-----------------------------------------------|
D|-----------------------------------------------|
A|-------------------------------5-5-5--5--------|
E|-5-5-5-5--5/-1-1-1--1--------------------------|

              G         G
   ¨Hay algo que aprender?  no puedo perder
G|------------------------------------------------|
D|------------------------------------------------|
A|------------------------------------------------|
E|-3-33-3--3-33-3-33---3-3--3-33-3-3-3-3----3-3---|
2 times

   Am               Am           G
   Flor de loto ,  flor de loto
G|------------------------------------------------|
D|------------------------------------------------|
A|------------------------------------------------|
E|-5-5-5-5--5--5-5-5-5--5---3-33-3-33-------------|

         C
    Facil de buscar (facil no entrontrar)
G|------------------------------------------------|
D|------------------------------------------------|
A|----3-33-3-33--3-33-3-33-----3-33-3-33----------|
E|------------------------------------------------|

         C
   Facil de buscar (facil no entrontrar)
G|------------------------------------------------|
D|------------------------------------------------|
A|----3-33-3-33--3-33-3-33-----3-33-3-33----------|
E|------------------------------------------------|


Solo

Am   G    C  (2x)

Chorus

=======================================================
Colaboren este archivo es de la raza y para la raza
alguna duda o comentario a mi mail!

            
            
Suggest correction
Creating personal tab
Creating personal tab
You can edit any tab online and save it as your Personal.

You can edit, replace or remove any tab part or add personal notes – all changes will be seen only by you.

Personal tabs can be accessed anytime from any device, even offline.
Learn more »
Give kudos to tab author, rate the tab!
1 2 3 4 5
comments
print report bad tab
guest
Wanna post a correction for this tab? Suggest correction