Oops, an error
Loading. Please wait.

Flor De Loto tab

version 1
version 1

Whole song

Interactive

224 views 1 this week
no commentswrite comment
1 2 3 4 5
3 more votes to show rating
add to favorites
×
Save as Personal and add changes to this tab that will be seen only by you. Learn more ›
×
You can save this tab as Personal to edit and correct it or add notes. All changes will be seen only by you. Learn more »
launch autoscroll
font size
0
reset
how to read this tab
guitar tuner
edit
Autoscroll
slow
fast
+/-
esc
set tempo
stop
GUITARRA 1


                                                                  
-----------2--------------2-----|-----------2--------------2-----|
-----2-------2------2-------2---|-----2-------2------2-------2---|
-------2-------2------2-------2-|-------2-------2------2-------2-|
---------4--------------4-------|---------4--------------4-------|
--------------------------------|--------------------------------|
--2--------------2--------------|--2--------------2--------------|


                                                                  
-----------0--------------0-----|-----------0--------------0-----|
-----2-------2------2-------2---|-----2-------2------2-------2---|
-------2-------2------2-------2-|-------2-------2------2-------2-|
---------2--------------2-------|---------2--------------2-------|
--0--------------0--------------|--0--------------0--------------|
--------------------------------|--------------------------------|


                                                                  
-----------0--------------0-----|-----------0--------------0-----|
-----2-------2------2-------2---|-----2-------2------2-------2---|
-------2-------2------2-------2-|-------2-------2------2-------2-|
---------2--------------2-------|---------2--------------2-------|
--0--------------0--------------|--0--------------0--------------|
--------------------------------|--------------------------------|


                                                                  
-----------0--------------0-----|-----------2--------------2-----|
-----2-------2------2-------2---|-----2-------2------2-------2---|
-------2-------2------2-------2-|-------2-------2------2-------2-|
---------2--------------2-------|---------4--------------4-------|
--0--------------0--------------|--------------------------------|
--------------------------------|--2--------------2--------------|


                                                                  
-----------2--------------2-----|-----------2--------------2-----|
-----2-------2------2-------2---|-----2-------2------2-------2---|
-------2-------2------2-------2-|-------2-------2------2-------2-|
---------4--------------4-------|---------4--------------4-------|
--------------------------------|--------------------------------|
--2--------------2--------------|--2--------------2--------------|


                                                                  
-----------2--------------2-----|-----------2--------------2-----|
-----2-------2------2-------2---|-----2-------2------2-------2---|
-------2-------2------2-------2-|-------2-------2------2-------2-|
---------4--------------4-------|---------4--------------4-------|
--------------------------------|--------------------------------|
--2--------------2--------------|--2--------------2--------------|


                                                                  
-----------0--------------0-----|-----------0--------------0-----|
-----2-------2------2-------2---|-----2-------2------2-------2---|
-------2-------2------2-------2-|-------2-------2------2-------2-|
---------2--------------2-------|---------2--------------2-------|
--0--------------0--------------|--0--------------0--------------|
--------------------------------|--------------------------------|


                                                                  
-----------0--------------0-----|-----------2--------------2-----|
-----2-------2------2-------2---|-----2-------2------2-------2---|
-------2-------2------2-------2-|-------2-------2------2-------2-|
---------2--------------2-------|---------4--------------4-------|
--0--------------0--------------|--------------------------------|
--------------------------------|--2--------------2--------------|


                                                            
--5--5-5-5--5-5-5--5-5--5-5--|--5--5-5-5--5-5-5--5-5--5-5--|
--5--5-5-5--5-5-5--5-5--5-5--|--5--5-5-5--5-5-5--5-5--5-5--|
--6--6-6-6--6-6-6--6-6--6-6--|--6--6-6-6--6-6-6--6-6--6-6--|
--5--5-5-5--5-5-5--5-5--5-5--|--5--5-5-5--5-5-5--5-5--5-5--|
--7--7-7-7--7-7-7--7-7--7-7--|--7--7-7-7--7-7-7--7-7--7-7--|
--5--5-5-5--5-5-5--5-5--5-5--|--5--5-5-5--5-5-5--5-5--5-5--|


                                                            
--5--5-5-5--5-5-5--5-5--5-5--|--5--5-5-5--5-5-5--5-5--5-5--|
--5--5-5-5--5-5-5--5-5--5-5--|--5--5-5-5--5-5-5--5-5--5-5--|
--6--6-6-6--6-6-6--6-6--6-6--|--6--6-6-6--6-6-6--6-6--6-6--|
--5--5-5-5--5-5-5--5-5--5-5--|--5--5-5-5--5-5-5--5-5--5-5--|
--7--7-7-7--7-7-7--7-7--7-7--|--7--7-7-7--7-7-7--7-7--7-7--|
--5--5-5-5--5-5-5--5-5--5-5--|--5--5-5-5--5-5-5--5-5--5-5--|


                                                                  
-----------2--------------2-----|-----------2--------------2-----|
-----2-------2------2-------2---|-----2-------2------2-------2---|
-------2-------2------2-------2-|-------2-------2------2-------2-|
---------4--------------4-------|---------4--------------4-------|
--------------------------------|--------------------------------|
--2--------------2--------------|--2--------------2--------------|


                                                                  
-----------0--------------0-----|-----------0--------------0-----|
-----2-------2------2-------2---|-----2-------2------2-------2---|
-------2-------2------2-------2-|-------2-------2------2-------2-|
---------2--------------2-------|---------2--------------2-------|
--0--------------0--------------|--0--------------0--------------|
--------------------------------|--------------------------------|


                                                                  
-----------0--------------0-----|-----------0--------------0-----|
-----2-------2------2-------2---|-----2-------2------2-------2---|
-------2-------2------2-------2-|-------2-------2------2-------2-|
---------2--------------2-------|---------2--------------2-------|
--0--------------0--------------|--0--------------0--------------|
--------------------------------|--------------------------------|


                                                                  
-----------0--------------0-----|-----------2--------------2-----|
-----2-------2------2-------2---|-----2-------2------2-------2---|
-------2-------2------2-------2-|-------2-------2------2-------2-|
---------2--------------2-------|---------4--------------4-------|
--0--------------0--------------|--------------------------------|
--------------------------------|--2--------------2--------------|


                                                                  
-----------2--------------2-----|-----------2--------------2-----|
-----2-------2------2-------2---|-----2-------2------2-------2---|
-------2-------2------2-------2-|-------2-------2------2-------2-|
---------4--------------4-------|---------4--------------4-------|
--------------------------------|--------------------------------|
--2--------------2--------------|--2--------------2--------------|


                                                                  
-----------2--------------2-----|-----------2--------------2-----|
-----2-------2------2-------2---|-----2-------2------2-------2---|
-------2-------2------2-------2-|-------2-------2------2-------2-|
---------4--------------4-------|---------4--------------4-------|
--------------------------------|--------------------------------|
--2--------------2--------------|--2--------------2--------------|


                                                                  
-----------0--------------0-----|-----------0--------------0-----|
-----2-------2------2-------2---|-----2-------2------2-------2---|
-------2-------2------2-------2-|-------2-------2------2-------2-|
---------2--------------2-------|---------2--------------2-------|
--0--------------0--------------|--0--------------0--------------|
--------------------------------|--------------------------------|


                                                                  
-----------0--------------0-----|-----------2--------------2-----|
-----2-------2------2-------2---|-----2-------2------2-------2---|
-------2-------2------2-------2-|-------2-------2------2-------2-|
---------2--------------2-------|---------4--------------4-------|
--0--------------0--------------|--------------------------------|
--------------------------------|--2--------------2--------------|


                                                            
--5--5-5-5--5-5-5--5-5--5-5--|--5--5-5-5--5-5-5--5-5--5-5--|
--5--5-5-5--5-5-5--5-5--5-5--|--5--5-5-5--5-5-5--5-5--5-5--|
--6--6-6-6--6-6-6--6-6--6-6--|--6--6-6-6--6-6-6--6-6--6-6--|
--5--5-5-5--5-5-5--5-5--5-5--|--5--5-5-5--5-5-5--5-5--5-5--|
--7--7-7-7--7-7-7--7-7--7-7--|--7--7-7-7--7-7-7--7-7--7-7--|
--5--5-5-5--5-5-5--5-5--5-5--|--5--5-5-5--5-5-5--5-5--5-5--|


                                                            
--5--5-5-5--5-5-5--5-5--5-5--|--5--5-5-5--5-5-5--5-5--5-5--|
--5--5-5-5--5-5-5--5-5--5-5--|--5--5-5-5--5-5-5--5-5--5-5--|
--6--6-6-6--6-6-6--6-6--6-6--|--6--6-6-6--6-6-6--6-6--6-6--|
--5--5-5-5--5-5-5--5-5--5-5--|--5--5-5-5--5-5-5--5-5--5-5--|
--7--7-7-7--7-7-7--7-7--7-7--|--7--7-7-7--7-7-7--7-7--7-7--|
--5--5-5-5--5-5-5--5-5--5-5--|--5--5-5-5--5-5-5--5-5--5-5--|


                                                                
--0--0-0-0--0-0-0--0-0-0-0-0-0-|--0--0-0-0--0-0-0--0-0-0-0-0-0-|
--1--1-1-1--1-1-1--1-1-1-1-1-1-|--1--1-1-1--1-1-1--1-1-1-1-1-1-|
--0--0-0-0--0-0-0--0-0-0-0-0-0-|--0--0-0-0--0-0-0--0-0-0-0-0-0-|
--2--2-2-2--2-2-2--2-2-2-2-2-2-|--2--2-2-2--2-2-2--2-2-2-2-2-2-|
--3--3-3-3--3-3-3--3-3-3-3-3-3-|--3--3-3-3--3-3-3--3-3-3-3-3-3-|
-------------------------------|-------------------------------|


                                                                
--0--0-0-0--0-0-0--0-0-0-0-0-0-|--0--0-0-0--0-0-0--0-0-0-0-0-0-|
--1--1-1-1--1-1-1--1-1-1-1-1-1-|--1--1-1-1--1-1-1--1-1-1-1-1-1-|
--0--0-0-0--0-0-0--0-0-0-0-0-0-|--0--0-0-0--0-0-0--0-0-0-0-0-0-|
--2--2-2-2--2-2-2--2-2-2-2-2-2-|--2--2-2-2--2-2-2--2-2-2-2-2-2-|
--3--3-3-3--3-3-3--3-3-3-3-3-3-|--3--3-3-3--3-3-3--3-3-3-3-3-3-|
-------------------------------|-------------------------------|


                                                            
--5--5-5-5--5-5-5--5-5--5-5--|--5--5-5-5--5-5-5--5-5--5-5--|
--5--5-5-5--5-5-5--5-5--5-5--|--5--5-5-5--5-5-5--5-5--5-5--|
--5--5-5-5--5-5-5--5-5--5-5--|--5--5-5-5--5-5-5--5-5--5-5--|
--7--7-7-7--7-7-7--7-7--7-7--|--7--7-7-7--7-7-7--7-7--7-7--|
--7--7-7-7--7-7-7--7-7--7-7--|--7--7-7-7--7-7-7--7-7--7-7--|
--5--5-5-5--5-5-5--5-5--5-5--|--5--5-5-5--5-5-5--5-5--5-5--|


                                                                  
-----------2--------------2-----|-----------2--------------2-----|
-----2-------2------2-------2---|-----2-------2------2-------2---|
-------2-------2------2-------2-|-------2-------2------2-------2-|
---------4--------------4-------|---------4--------------4-------|
--------------------------------|--------------------------------|
--2--------------2--------------|--2--------------2--------------|


                                                                  
-----------0--------------0-----|-----------0--------------0-----|
-----2-------2------2-------2---|-----2-------2------2-------2---|
-------2-------2------2-------2-|-------2-------2------2-------2-|
---------2--------------2-------|---------2--------------2-------|
--0--------------0--------------|--0--------------0--------------|
--------------------------------|--------------------------------|


                                                                  
-----------0--------------0-----|-----------0--------------0-----|
-----2-------2------2-------2---|-----2-------2------2-------2---|
-------2-------2------2-------2-|-------2-------2------2-------2-|
---------2--------------2-------|---------2--------------2-------|
--0--------------0--------------|--0--------------0--------------|
--------------------------------|--------------------------------|


                                                                  
-----------0--------------0-----|-----------2--------------2-----|
-----2-------2------2-------2---|-----2-------2------2-------2---|
-------2-------2------2-------2-|-------2-------2------2-------2-|
---------2--------------2-------|---------4--------------4-------|
--0--------------0--------------|--------------------------------|
--------------------------------|--2--------------2--------------|


                                                                  
-----------2--------------2-----|-----------2--------------2-----|
-----2-------2------2-------2---|-----2-------2------2-------2---|
-------2-------2------2-------2-|-------2-------2------2-------2-|
---------4--------------4-------|---------4--------------4-------|
--------------------------------|--------------------------------|
--2--------------2--------------|--2--------------2--------------|


                                                                  
-----------2--------------2-----|-----------2--------------2-----|
-----2-------2------2-------2---|-----2-------2------2-------2---|
-------2-------2------2-------2-|-------2-------2------2-------2-|
---------4--------------4-------|---------4--------------4-------|
--------------------------------|--------------------------------|
--2--------------2--------------|--2--------------2--------------|


                                                                  
-----------0--------------0-----|-----------0--------------0-----|
-----2-------2------2-------2---|-----2-------2------2-------2---|
-------2-------2------2-------2-|-------2-------2------2-------2-|
---------2--------------2-------|---------2--------------2-------|
--0--------------0--------------|--0--------------0--------------|
--------------------------------|--------------------------------|


                                                                  
-----------0--------------0-----|-----------2--------------2-----|
-----2-------2------2-------2---|-----2-------2------2-------2---|
-------2-------2------2-------2-|-------2-------2------2-------2-|
---------2--------------2-------|---------4--------------4-------|
--0--------------0--------------|--------------------------------|
--------------------------------|--2--------------2--------------|


                                                            
--5--5-5-5--5-5-5--5-5--5-5--|--5--5-5-5--5-5-5--5-5--5-5--|
--5--5-5-5--5-5-5--5-5--5-5--|--5--5-5-5--5-5-5--5-5--5-5--|
--6--6-6-6--6-6-6--6-6--6-6--|--6--6-6-6--6-6-6--6-6--6-6--|
--5--5-5-5--5-5-5--5-5--5-5--|--5--5-5-5--5-5-5--5-5--5-5--|
--7--7-7-7--7-7-7--7-7--7-7--|--7--7-7-7--7-7-7--7-7--7-7--|
--5--5-5-5--5-5-5--5-5--5-5--|--5--5-5-5--5-5-5--5-5--5-5--|


                                                            
--5--5-5-5--5-5-5--5-5--5-5--|--5--5-5-5--5-5-5--5-5--5-5--|
--5--5-5-5--5-5-5--5-5--5-5--|--5--5-5-5--5-5-5--5-5--5-5--|
--6--6-6-6--6-6-6--6-6--6-6--|--6--6-6-6--6-6-6--6-6--6-6--|
--5--5-5-5--5-5-5--5-5--5-5--|--5--5-5-5--5-5-5--5-5--5-5--|
--7--7-7-7--7-7-7--7-7--7-7--|--7--7-7-7--7-7-7--7-7--7-7--|
--5--5-5-5--5-5-5--5-5--5-5--|--5--5-5-5--5-5-5--5-5--5-5--|


                                                                
--0--0-0-0--0-0-0--0-0-0-0-0-0-|--0--0-0-0--0-0-0--0-0-0-0-0-0-|
--1--1-1-1--1-1-1--1-1-1-1-1-1-|--1--1-1-1--1-1-1--1-1-1-1-1-1-|
--0--0-0-0--0-0-0--0-0-0-0-0-0-|--0--0-0-0--0-0-0--0-0-0-0-0-0-|
--2--2-2-2--2-2-2--2-2-2-2-2-2-|--2--2-2-2--2-2-2--2-2-2-2-2-2-|
--3--3-3-3--3-3-3--3-3-3-3-3-3-|--3--3-3-3--3-3-3--3-3-3-3-3-3-|
-------------------------------|-------------------------------|


                                                                
--0--0-0-0--0-0-0--0-0-0-0-0-0-|--0--0-0-0--0-0-0--0-0-0-0-0-0-|
--1--1-1-1--1-1-1--1-1-1-1-1-1-|--1--1-1-1--1-1-1--1-1-1-1-1-1-|
--0--0-0-0--0-0-0--0-0-0-0-0-0-|--0--0-0-0--0-0-0--0-0-0-0-0-0-|
--2--2-2-2--2-2-2--2-2-2-2-2-2-|--2--2-2-2--2-2-2--2-2-2-2-2-2-|
--3--3-3-3--3-3-3--3-3-3-3-3-3-|--3--3-3-3--3-3-3--3-3-3-3-3-3-|
-------------------------------|-------------------------------|


                                                              
--5--5-5-5--5-5-5--5-5--5-5--|--1--1-1-1--1-1-1-1-1--1-1-1-1-|
--5--5-5-5--5-5-5--5-5--5-5--|--1--1-1-1--1-1-1-1-1--1-1-1-1-|
--5--5-5-5--5-5-5--5-5--5-5--|--2--2-2-2--2-2-2-2-2--2-2-2-2-|
--7--7-7-7--7-7-7--7-7--7-7--|--3--3-3-3--3-3-3-3-3--3-3-3-3-|
--7--7-7-7--7-7-7--7-7--7-7--|--3--3-3-3--3-3-3-3-3--3-3-3-3-|
--5--5-5-5--5-5-5--5-5--5-5--|--1--1-1-1--1-1-1-1-1--1-1-1-1-|


                                                               
--3--3-3-3--3-3-3-3-3--3-3-3-3-|--5--5-5-5--5-5--5-5--5-5-5-5-|
--3--3-3-3--3-3-3-3-3--3-3-3-3-|--5--5-5-5--5-5--5-5--5-5-5-5-|
--4--4-4-4--4-4-4-4-4--4-4-4-4-|--5--5-5-5--5-5--5-5--5-5-5-5-|
--5--5-5-5--5-5-5-5-5--5-5-5-5-|--7--7-7-7--7-7--7-7--7-7-7-7-|
--5--5-5-5--5-5-5-5-5--5-5-5-5-|--7--7-7-7--7-7--7-7--7-7-7-7-|
--3--3-3-3--3-3-3-3-3--3-3-3-3-|--5--5-5-5--5-5--5-5--5-5-5-5-|


                                                               
--5--5-5-5--5-5-5-5-5--5-5-5-5-|--1--1-1-1--1-1--1-1--1-1-1-1-|
--5--5-5-5--5-5-5-5-5--5-5-5-5-|--1--1-1-1--1-1--1-1--1-1-1-1-|
--5--5-5-5--5-5-5-5-5--5-5-5-5-|--2--2-2-2--2-2--2-2--2-2-2-2-|
--7--7-7-7--7-7-7-7-7--7-7-7-7-|--3--3-3-3--3-3--3-3--3-3-3-3-|
--7--7-7-7--7-7-7-7-7--7-7-7-7-|--3--3-3-3--3-3--3-3--3-3-3-3-|
--5--5-5-5--5-5-5-5-5--5-5-5-5-|--1--1-1-1--1-1--1-1--1-1-1-1-|


                                                              
--3--3-3-3--3-3--3-3--3-3-3-3-|--5--5-5-5--5-5--5-5--5-5-5-5-|
--3--3-3-3--3-3--3-3--3-3-3-3-|--5--5-5-5--5-5--5-5--5-5-5-5-|
--4--4-4-4--4-4--4-4--4-4-4-4-|--5--5-5-5--5-5--5-5--5-5-5-5-|
--5--5-5-5--5-5--5-5--5-5-5-5-|--7--7-7-7--7-7--7-7--7-7-7-7-|
--5--5-5-5--5-5--5-5--5-5-5-5-|--7--7-7-7--7-7--7-7--7-7-7-7-|
--3--3-3-3--3-3--3-3--3-3-3-3-|--5--5-5-5--5-5--5-5--5-5-5-5-|


                                                           
--5--5-5-5--5-5--5-5--5-5-5-5-|--5---5-5---5--5--5-5--5-5-|
--5--5-5-5--5-5--5-5--5-5-5-5-|--5---5-5---5--5--5-5--5-5-|
--5--5-5-5--5-5--5-5--5-5-5-5-|--5---5-5---5--5--5-5--5-5-|
--7--7-7-7--7-7--7-7--7-7-7-7-|--7---7-7---7--7--7-7--7-7-|
--7--7-7-7--7-7--7-7--7-7-7-7-|--7---7-7---7--7--7-7--7-7-|
--5--5-5-5--5-5--5-5--5-5-5-5-|--5---5-5---5--5--5-5--5-5-|


                                                        
--1---1-1---1--1--1-1--1-1-|--5---5-5---5--5--5-5--5-5-|
--1---1-1---1--1--1-1--1-1-|--6---6-6---6--6--6-6--6-6-|
--2---2-2---2--2--2-2--2-2-|--7---7-7---7--7--7-7--7-7-|
--3---3-3---3--3--3-3--3-3-|--7---7-7---7--7--7-7--7-7-|
--3---3-3---3--3--3-3--3-3-|--5---5-5---5--5--5-5--5-5-|
--1---1-1---1--1--1-1--1-1-|---------------------------|


                                                        
--5---5-5---5--5--5-5--5-5-|--5---5-5---5--5--5-5--5-5-|
--5---5-5---5--5--5-5--5-5-|--5---5-5---5--5--5-5--5-5-|
--5---5-5---5--5--5-5--5-5-|--5---5-5---5--5--5-5--5-5-|
--7---7-7---7--7--7-7--7-7-|--7---7-7---7--7--7-7--7-7-|
--7---7-7---7--7--7-7--7-7-|--7---7-7---7--7--7-7--7-7-|
--5---5-5---5--5--5-5--5-5-|--5---5-5---5--5--5-5--5-5-|


                                                              
--1--1-1-1--1-1--1-1--1-1-1-1-|--5--5-5-5--5-5--5-5--5-5-5-5-|
--1--1-1-1--1-1--1-1--1-1-1-1-|--6--6-6-6--6-6--6-6--6-6-6-6-|
--2--2-2-2--2-2--2-2--2-2-2-2-|--7--7-7-7--7-7--7-7--7-7-7-7-|
--3--3-3-3--3-3--3-3--3-3-3-3-|--7--7-7-7--7-7--7-7--7-7-7-7-|
--3--3-3-3--3-3--3-3--3-3-3-3-|--5--5-5-5--5-5--5-5--5-5-5-5-|
--1--1-1-1--1-1--1-1--1-1-1-1-|------------------------------|


                                                              
--3--3-3-3--3-3--3-3--3-3-3-3-|--3--3-3-3--3-3--3-3--3-3-3-3-|
--3--3-3-3--3-3--3-3--3-3-3-3-|--3--3-3-3--3-3--3-3--3-3-3-3-|
--4--4-4-4--4-4--4-4--4-4-4-4-|--4--4-4-4--4-4--4-4--4-4-4-4-|
--5--5-5-5--5-5--5-5--5-5-5-5-|--5--5-5-5--5-5--5-5--5-5-5-5-|
--5--5-5-5--5-5--5-5--5-5-5-5-|--5--5-5-5--5-5--5-5--5-5-5-5-|
--3--3-3-3--3-3--3-3--3-3-3-3-|--3--3-3-3--3-3--3-3--3-3-3-3-|


                                                            
--5--5-5-5--5-5--5--5-5--5-5-|--5--5-5-5--5-5--5--5-5--5-5-|
--5--5-5-5--5-5--5--5-5--5-5-|--5--5-5-5--5-5--5--5-5--5-5-|
--5--5-5-5--5-5--5--5-5--5-5-|--5--5-5-5--5-5--5--5-5--5-5-|
--7--7-7-7--7-7--7--7-7--7-7-|--7--7-7-7--7-7--7--7-7--7-7-|
--7--7-7-7--7-7--7--7-7--7-7-|--7--7-7-7--7-7--7--7-7--7-7-|
--5--5-5-5--5-5--5--5-5--5-5-|--5--5-5-5--5-5--5--5-5--5-5-|


                                                            
--5--5-5-5--5-5--5--5-5--5-5-|--3--3-3-3--3-3--3--3-3--3-3-|
--5--5-5-5--5-5--5--5-5--5-5-|--3--3-3-3--3-3--3--3-3--3-3-|
--5--5-5-5--5-5--5--5-5--5-5-|--4--4-4-4--4-4--4--4-4--4-4-|
--7--7-7-7--7-7--7--7-7--7-7-|--5--5-5-5--5-5--5--5-5--5-5-|
--7--7-7-7--7-7--7--7-7--7-7-|--5--5-5-5--5-5--5--5-5--5-5-|
--5--5-5-5--5-5--5--5-5--5-5-|--3--3-3-3--3-3--3--3-3--3-3-|


                                                            
--3--3-3-3--3-3--3--3-3--3-3-|--3--3-3-3--3-3--3--3-3--3-3-|
--5--5-5-5--5-5--5--5-5--5-5-|--5--5-5-5--5-5--5--5-5--5-5-|
--5--5-5-5--5-5--5--5-5--5-5-|--5--5-5-5--5-5--5--5-5--5-5-|
--5--5-5-5--5-5--5--5-5--5-5-|--5--5-5-5--5-5--5--5-5--5-5-|
--3--3-3-3--3-3--3--3-3--3-3-|--3--3-3-3--3-3--3--3-3--3-3-|
-----------------------------|-----------------------------|


                                                            
--3--3-3-3--3-3--3--3-3--3-3-|--5--5-5-5--5-5--5--5-5--5-5-|
--5--5-5-5--5-5--5--5-5--5-5-|--5--5-5-5--5-5--5--5-5--5-5-|
--5--5-5-5--5-5--5--5-5--5-5-|--5--5-5-5--5-5--5--5-5--5-5-|
--5--5-5-5--5-5--5--5-5--5-5-|--7--7-7-7--7-7--7--7-7--7-7-|
--3--3-3-3--3-3--3--3-3--3-3-|--7--7-7-7--7-7--7--7-7--7-7-|
-----------------------------|--5--5-5-5--5-5--5--5-5--5-5-|


                                                            
--5--5-5-5--5-5--5--5-5--5-5-|--5--5-5-5--5-5--5--5-5--5-5-|
--5--5-5-5--5-5--5--5-5--5-5-|--5--5-5-5--5-5--5--5-5--5-5-|
--5--5-5-5--5-5--5--5-5--5-5-|--5--5-5-5--5-5--5--5-5--5-5-|
--7--7-7-7--7-7--7--7-7--7-7-|--7--7-7-7--7-7--7--7-7--7-7-|
--7--7-7-7--7-7--7--7-7--7-7-|--7--7-7-7--7-7--7--7-7--7-7-|
--5--5-5-5--5-5--5--5-5--5-5-|--5--5-5-5--5-5--5--5-5--5-5-|


                                                            
--5--5-5-5--5-5--5--5-5--5-5-|--3--3-3-3--3-3--3--3-3--3-3-|
--5--5-5-5--5-5--5--5-5--5-5-|--3--3-3-3--3-3--3--3-3--3-3-|
--5--5-5-5--5-5--5--5-5--5-5-|--4--4-4-4--4-4--4--4-4--4-4-|
--7--7-7-7--7-7--7--7-7--7-7-|--5--5-5-5--5-5--5--5-5--5-5-|
--7--7-7-7--7-7--7--7-7--7-7-|--5--5-5-5--5-5--5--5-5--5-5-|
--5--5-5-5--5-5--5--5-5--5-5-|--3--3-3-3--3-3--3--3-3--3-3-|


                                                            
--3--3-3-3--3-3--3--3-3--3-3-|--3--3-3-3--3-3--3--3-3--3-3-|
--5--5-5-5--5-5--5--5-5--5-5-|--5--5-5-5--5-5--5--5-5--5-5-|
--5--5-5-5--5-5--5--5-5--5-5-|--5--5-5-5--5-5--5--5-5--5-5-|
--5--5-5-5--5-5--5--5-5--5-5-|--5--5-5-5--5-5--5--5-5--5-5-|
--3--3-3-3--3-3--3--3-3--3-3-|--3--3-3-3--3-3--3--3-3--3-3-|
-----------------------------|-----------------------------|


                                                            
--3--3-3-3--3-3--3--3-3--3-3-|--5--5-5-5--5-5--5--5-5--5-5-|
--5--5-5-5--5-5--5--5-5--5-5-|--5--5-5-5--5-5--5--5-5--5-5-|
--5--5-5-5--5-5--5--5-5--5-5-|--5--5-5-5--5-5--5--5-5--5-5-|
--5--5-5-5--5-5--5--5-5--5-5-|--7--7-7-7--7-7--7--7-7--7-7-|
--3--3-3-3--3-3--3--3-3--3-3-|--7--7-7-7--7-7--7--7-7--7-7-|
-----------------------------|--5--5-5-5--5-5--5--5-5--5-5-|


                                                            
--5--5-5-5--5-5--5--5-5--5-5-|--5--5-5-5--5-5--5--5-5--5-5-|
--5--5-5-5--5-5--5--5-5--5-5-|--5--5-5-5--5-5--5--5-5--5-5-|
--5--5-5-5--5-5--5--5-5--5-5-|--5--5-5-5--5-5--5--5-5--5-5-|
--7--7-7-7--7-7--7--7-7--7-7-|--7--7-7-7--7-7--7--7-7--7-7-|
--7--7-7-7--7-7--7--7-7--7-7-|--7--7-7-7--7-7--7--7-7--7-7-|
--5--5-5-5--5-5--5--5-5--5-5-|--5--5-5-5--5-5--5--5-5--5-5-|


                                                            
--5--5-5-5--5-5--5--5-5--5-5-|--3--3-3-3--3-3--3--3-3--3-3-|
--5--5-5-5--5-5--5--5-5--5-5-|--3--3-3-3--3-3--3--3-3--3-3-|
--5--5-5-5--5-5--5--5-5--5-5-|--4--4-4-4--4-4--4--4-4--4-4-|
--7--7-7-7--7-7--7--7-7--7-7-|--5--5-5-5--5-5--5--5-5--5-5-|
--7--7-7-7--7-7--7--7-7--7-7-|--5--5-5-5--5-5--5--5-5--5-5-|
--5--5-5-5--5-5--5--5-5--5-5-|--3--3-3-3--3-3--3--3-3--3-3-|


                                                            
--3--3-3-3--3-3--3--3-3--3-3-|--3--3-3-3--3-3--3--3-3--3-3-|
--5--5-5-5--5-5--5--5-5--5-5-|--5--5-5-5--5-5--5--5-5--5-5-|
--5--5-5-5--5-5--5--5-5--5-5-|--5--5-5-5--5-5--5--5-5--5-5-|
--5--5-5-5--5-5--5--5-5--5-5-|--5--5-5-5--5-5--5--5-5--5-5-|
--3--3-3-3--3-3--3--3-3--3-3-|--3--3-3-3--3-3--3--3-3--3-3-|
-----------------------------|-----------------------------|


                                                            
--3--3-3-3--3-3--3--3-3--3-3-|--5--5-5-5--5-5--5--5-5--5-5-|
--5--5-5-5--5-5--5--5-5--5-5-|--5--5-5-5--5-5--5--5-5--5-5-|
--5--5-5-5--5-5--5--5-5--5-5-|--5--5-5-5--5-5--5--5-5--5-5-|
--5--5-5-5--5-5--5--5-5--5-5-|--7--7-7-7--7-7--7--7-7--7-7-|
--3--3-3-3--3-3--3--3-3--3-3-|--7--7-7-7--7-7--7--7-7--7-7-|
-----------------------------|--5--5-5-5--5-5--5--5-5--5-5-|


                                                            
--5--5-5-5--5-5--5--5-5--5-5-|--5--5-5-5--5-5--5--5-5--5-5-|
--5--5-5-5--5-5--5--5-5--5-5-|--5--5-5-5--5-5--5--5-5--5-5-|
--5--5-5-5--5-5--5--5-5--5-5-|--5--5-5-5--5-5--5--5-5--5-5-|
--7--7-7-7--7-7--7--7-7--7-7-|--7--7-7-7--7-7--7--7-7--7-7-|
--7--7-7-7--7-7--7--7-7--7-7-|--7--7-7-7--7-7--7--7-7--7-7-|
--5--5-5-5--5-5--5--5-5--5-5-|--5--5-5-5--5-5--5--5-5--5-5-|


                                                            
--5--5-5-5--5-5--5--5-5--5-5-|--3--3-3-3--3-3--3--3-3--3-3-|
--5--5-5-5--5-5--5--5-5--5-5-|--3--3-3-3--3-3--3--3-3--3-3-|
--5--5-5-5--5-5--5--5-5--5-5-|--4--4-4-4--4-4--4--4-4--4-4-|
--7--7-7-7--7-7--7--7-7--7-7-|--5--5-5-5--5-5--5--5-5--5-5-|
--7--7-7-7--7-7--7--7-7--7-7-|--5--5-5-5--5-5--5--5-5--5-5-|
--5--5-5-5--5-5--5--5-5--5-5-|--3--3-3-3--3-3--3--3-3--3-3-|


                                                            
--3--3-3-3--3-3--3--3-3--3-3-|--3--3-3-3--3-3--3--3-3--3-3-|
--5--5-5-5--5-5--5--5-5--5-5-|--5--5-5-5--5-5--5--5-5--5-5-|
--5--5-5-5--5-5--5--5-5--5-5-|--5--5-5-5--5-5--5--5-5--5-5-|
--5--5-5-5--5-5--5--5-5--5-5-|--5--5-5-5--5-5--5--5-5--5-5-|
--3--3-3-3--3-3--3--3-3--3-3-|--3--3-3-3--3-3--3--3-3--3-3-|
-----------------------------|-----------------------------|


                                                            
--3--3-3-3--3-3--3--3-3--3-3-|--5--5-5-5--5-5--5--5-5--5-5-|
--5--5-5-5--5-5--5--5-5--5-5-|--5--5-5-5--5-5--5--5-5--5-5-|
--5--5-5-5--5-5--5--5-5--5-5-|--5--5-5-5--5-5--5--5-5--5-5-|
--5--5-5-5--5-5--5--5-5--5-5-|--7--7-7-7--7-7--7--7-7--7-7-|
--3--3-3-3--3-3--3--3-3--3-3-|--7--7-7-7--7-7--7--7-7--7-7-|
-----------------------------|--5--5-5-5--5-5--5--5-5--5-5-|


                                                                
--1--1-1-1--1-1-1-1-1--1-1-1-1-|--3--3-3-3--3-3-3-3-3--3-3-3-3-|
--1--1-1-1--1-1-1-1-1--1-1-1-1-|--3--3-3-3--3-3-3-3-3--3-3-3-3-|
--2--2-2-2--2-2-2-2-2--2-2-2-2-|--4--4-4-4--4-4-4-4-4--4-4-4-4-|
--3--3-3-3--3-3-3-3-3--3-3-3-3-|--5--5-5-5--5-5-5-5-5--5-5-5-5-|
--3--3-3-3--3-3-3-3-3--3-3-3-3-|--5--5-5-5--5-5-5-5-5--5-5-5-5-|
--1--1-1-1--1-1-1-1-1--1-1-1-1-|--3--3-3-3--3-3-3-3-3--3-3-3-3-|


                                                               
--5--5-5-5--5-5--5-5--5-5-5-5-|--5--5-5-5--5-5-5-5-5--5-5-5-5-|
--5--5-5-5--5-5--5-5--5-5-5-5-|--5--5-5-5--5-5-5-5-5--5-5-5-5-|
--5--5-5-5--5-5--5-5--5-5-5-5-|--5--5-5-5--5-5-5-5-5--5-5-5-5-|
--7--7-7-7--7-7--7-7--7-7-7-7-|--7--7-7-7--7-7-7-7-7--7-7-7-7-|
--7--7-7-7--7-7--7-7--7-7-7-7-|--7--7-7-7--7-7-7-7-7--7-7-7-7-|
--5--5-5-5--5-5--5-5--5-5-5-5-|--5--5-5-5--5-5-5-5-5--5-5-5-5-|


                                                              
--1--1-1-1--1-1--1-1--1-1-1-1-|--3--3-3-3--3-3--3-3--3-3-3-3-|
--1--1-1-1--1-1--1-1--1-1-1-1-|--3--3-3-3--3-3--3-3--3-3-3-3-|
--2--2-2-2--2-2--2-2--2-2-2-2-|--4--4-4-4--4-4--4-4--4-4-4-4-|
--3--3-3-3--3-3--3-3--3-3-3-3-|--5--5-5-5--5-5--5-5--5-5-5-5-|
--3--3-3-3--3-3--3-3--3-3-3-3-|--5--5-5-5--5-5--5-5--5-5-5-5-|
--1--1-1-1--1-1--1-1--1-1-1-1-|--3--3-3-3--3-3--3-3--3-3-3-3-|


                                                              
--5--5-5-5--5-5--5-5--5-5-5-5-|--5--5-5-5--5-5--5-5--5-5-5-5-|
--5--5-5-5--5-5--5-5--5-5-5-5-|--5--5-5-5--5-5--5-5--5-5-5-5-|
--5--5-5-5--5-5--5-5--5-5-5-5-|--5--5-5-5--5-5--5-5--5-5-5-5-|
--7--7-7-7--7-7--7-7--7-7-7-7-|--7--7-7-7--7-7--7-7--7-7-7-7-|
--7--7-7-7--7-7--7-7--7-7-7-7-|--7--7-7-7--7-7--7-7--7-7-7-7-|
--5--5-5-5--5-5--5-5--5-5-5-5-|--5--5-5-5--5-5--5-5--5-5-5-5-|


                                                        
--5---5-5---5--5--5-5--5-5-|--1---1-1---1--1--1-1--1-1-|
--5---5-5---5--5--5-5--5-5-|--1---1-1---1--1--1-1--1-1-|
--5---5-5---5--5--5-5--5-5-|--2---2-2---2--2--2-2--2-2-|
--7---7-7---7--7--7-7--7-7-|--3---3-3---3--3--3-3--3-3-|
--7---7-7---7--7--7-7--7-7-|--3---3-3---3--3--3-3--3-3-|
--5---5-5---5--5--5-5--5-5-|--1---1-1---1--1--1-1--1-1-|


                                                        
--5---5-5---5--5--5-5--5-5-|--5---5-5---5--5--5-5--5-5-|
--6---6-6---6--6--6-6--6-6-|--5---5-5---5--5--5-5--5-5-|
--7---7-7---7--7--7-7--7-7-|--5---5-5---5--5--5-5--5-5-|
--7---7-7---7--7--7-7--7-7-|--7---7-7---7--7--7-7--7-7-|
--5---5-5---5--5--5-5--5-5-|--7---7-7---7--7--7-7--7-7-|
---------------------------|--5---5-5---5--5--5-5--5-5-|


                                                           
--5---5-5---5--5--5-5--5-5-|--1--1-1-1--1-1--1-1--1-1-1-1-|
--5---5-5---5--5--5-5--5-5-|--1--1-1-1--1-1--1-1--1-1-1-1-|
--5---5-5---5--5--5-5--5-5-|--2--2-2-2--2-2--2-2--2-2-2-2-|
--7---7-7---7--7--7-7--7-7-|--3--3-3-3--3-3--3-3--3-3-3-3-|
--7---7-7---7--7--7-7--7-7-|--3--3-3-3--3-3--3-3--3-3-3-3-|
--5---5-5---5--5--5-5--5-5-|--1--1-1-1--1-1--1-1--1-1-1-1-|


                                                              
--5--5-5-5--5-5--5-5--5-5-5-5-|--3--3-3-3--3-3--3-3--3-3-3-3-|
--6--6-6-6--6-6--6-6--6-6-6-6-|--3--3-3-3--3-3--3-3--3-3-3-3-|
--7--7-7-7--7-7--7-7--7-7-7-7-|--4--4-4-4--4-4--4-4--4-4-4-4-|
--7--7-7-7--7-7--7-7--7-7-7-7-|--5--5-5-5--5-5--5-5--5-5-5-5-|
--5--5-5-5--5-5--5-5--5-5-5-5-|--5--5-5-5--5-5--5-5--5-5-5-5-|
------------------------------|--3--3-3-3--3-3--3-3--3-3-3-3-|


                                                             
--3--3-3-3--3-3--3-3--3-3-3-3-|--5--5-5-5--5-5--5--5-5--5-5-|
--3--3-3-3--3-3--3-3--3-3-3-3-|--5--5-5-5--5-5--5--5-5--5-5-|
--4--4-4-4--4-4--4-4--4-4-4-4-|--5--5-5-5--5-5--5--5-5--5-5-|
--5--5-5-5--5-5--5-5--5-5-5-5-|--7--7-7-7--7-7--7--7-7--7-7-|
--5--5-5-5--5-5--5-5--5-5-5-5-|--7--7-7-7--7-7--7--7-7--7-7-|
--3--3-3-3--3-3--3-3--3-3-3-3-|--5--5-5-5--5-5--5--5-5--5-5-|


                                                            
--5--5-5-5--5-5--5--5-5--5-5-|--5--5-5-5--5-5--5--5-5--5-5-|
--5--5-5-5--5-5--5--5-5--5-5-|--5--5-5-5--5-5--5--5-5--5-5-|
--5--5-5-5--5-5--5--5-5--5-5-|--5--5-5-5--5-5--5--5-5--5-5-|
--7--7-7-7--7-7--7--7-7--7-7-|--7--7-7-7--7-7--7--7-7--7-7-|
--7--7-7-7--7-7--7--7-7--7-7-|--7--7-7-7--7-7--7--7-7--7-7-|
--5--5-5-5--5-5--5--5-5--5-5-|--5--5-5-5--5-5--5--5-5--5-5-|


                                                            
--3--3-3-3--3-3--3--3-3--3-3-|--3--3-3-3--3-3--3--3-3--3-3-|
--3--3-3-3--3-3--3--3-3--3-3-|--5--5-5-5--5-5--5--5-5--5-5-|
--4--4-4-4--4-4--4--4-4--4-4-|--5--5-5-5--5-5--5--5-5--5-5-|
--5--5-5-5--5-5--5--5-5--5-5-|--5--5-5-5--5-5--5--5-5--5-5-|
--5--5-5-5--5-5--5--5-5--5-5-|--3--3-3-3--3-3--3--3-3--3-3-|
--3--3-3-3--3-3--3--3-3--3-3-|-----------------------------|


                                                                                
--3--3-3-3--3-3--3--3-3--3-3-|--3--3-3-3--3-3--3--3-3--3-3-|--5~---------------|
--5--5-5-5--5-5--5--5-5--5-5-|--5--5-5-5--5-5--5--5-5--5-5-|--5~---------------|
--5--5-5-5--5-5--5--5-5--5-5-|--5--5-5-5--5-5--5--5-5--5-5-|--5~---------------|
--5--5-5-5--5-5--5--5-5--5-5-|--5--5-5-5--5-5--5--5-5--5-5-|--7~---------------|
--3--3-3-3--3-3--3--3-3--3-3-|--3--3-3-3--3-3--3--3-3--3-3-|--7~---------------|
-----------------------------|-----------------------------|--5~---------------|


                                                                             
------------------|------------------|------------------|------------------||
------------------|------------------|------------------|------------------||
------------------|------------------|------------------|------------------||
------------------|------------------|------------------|------------------||
------------------|------------------|------------------|------------------||
------------------|------------------|------------------|------------------||

            
            
Suggest correction
Creating personal tab
Creating personal tab
You can edit any tab online and save it as your Personal.

You can edit, replace or remove any tab part or add personal notes – all changes will be seen only by you.

Personal tabs can be accessed anytime from any device, even offline.
Learn more »
Give kudos to tab author, rate the tab!
1 2 3 4 5
comments
print report bad tab
guest
Wanna post a correction for this tab? Suggest correction