Oops, an error
Loading. Please wait.

Flor De Loto tab

version 3
version 3

Whole song

Interactive

121 views 1 this week
no commentswrite comment
1 2 3 4 5
3 more votes to show rating
add to favorites
×
Save as Personal and add changes to this tab that will be seen only by you. Learn more ›
×
You can save this tab as Personal to edit and correct it or add notes. All changes will be seen only by you. Learn more »
launch autoscroll
font size
0
reset
how to read this tab
guitar tuner
edit
Autoscroll
slow
fast
+/-
esc
set tempo
stop
esta es la parte de la guitarra dist. del coro y el solo
pongan atencion en que momento entra


primer puente


esta es mi flor de loto....
-------------------------------|-------------------------------|
-------------------------------|-------------------------------|
-------------------------------|-------------------------------|
--7--x-x-7--x-x-7h5---7--7h5---|--7--x-x-7--x-x-7h5---7--7h5---|
--7--x-x-7--x-x-----7--------7-|--7--x-x-7--x-x-----7--------7-|
--5------5---------------------|--5------5---------------------|


                                                                 
-------------------------------|--------------------------------|
-------------------------------|--------------------------------|
-------------------------------|--------------------------4/5-7-|
--7--x-x-7--x-x-7h5---7--7h5---|--7--x-x-7--x-x-7h5---5-7-------|
--7--x-x-7--x-x-----7--------7-|--7--x-x-7--x-x-----7-----------|
--5------5---------------------|--5------5----------------------|


                                                              
----------------------------|--------------------------------|
--5---x-5---x-5---5-8h7h5---|--5--x-x-5--5-5-7h8h7h5---7h5---|
--5---x-5---x-5-----------7-|--5--x-x-5--------------7-----7-|
--5---x-5---x-5-------------|--5--x-x-5----------------------|
----------------------------|--------------------------------|
----------------------------|--------------------------------|


                                                              
----------------------------|--------------------------------|
--5---x-5---x-5---5-8h7h5---|--5---x-5---x-------------------|
--5---x-5---x-5-----------7-|--5---x-5-----5h7h5---5/4-----4-|
--5---x-5---x-5-------------|--5---x-5-----------7-----7h5---|
----------------------------|--------------------------------|
----------------------------|--------------------------------|


                                                                    
------------------------------|------------------------------------|
------------------------------|------------------------------------|
-----------------------5h4----|------------------------------------|
--7--x-x-7--x-x-7--x-x-----5--|--7--x-x-7--x-x-5h7h5---5-5h7h5---5-|
--7--x-x-7--x-x-7--x-x--------|--7--x-x-7--x-x-------7---------7---|
--5------5------5-------------|--5------5--------------------------|


parte del segundo puente hasta el final


------------------|-------------------------------|
------------------|-------------------------------|
------------------|-------------------------------|
------------------|--7--x-x-7--x-x-7h5---7--7h5---|
------------------|--7--x-x-7--x-x-----7--------7-|
------------------|--5------5---------------------|


                                                                
-------------------------------|-------------------------------|
-------------------------------|-------------------------------|
-------------------------------|-------------------------------|
--7--x-x-7--x-x-7h5---7--7h5---|--7--x-x-7--x-x-7h5---7--7h5---|
--7--x-x-7--x-x-----7--------7-|--7--x-x-7--x-x-----7--------7-|
--5------5---------------------|--5------5---------------------|


                                                              
--------------------------------|----------------------------|
--------------------------------|--5---x-5---x-5---5-8h7h5---|
--------------------------4/5-7-|--5---x-5---x-5-----------7-|
--7--x-x-7--x-x-7h5---5-7-------|--5---x-5---x-5-------------|
--7--x-x-7--x-x-----7-----------|----------------------------|
--5------5----------------------|----------------------------|


                                                              
--------------------------------|----------------------------|
--5--x-x-5--5-5-7h8h7h5---7h5---|--5---x-5---x-5---5-8h7h5---|
--5--x-x-5--------------7-----7-|--5---x-5---x-5-----------7-|
--5--x-x-5----------------------|--5---x-5---x-5-------------|
--------------------------------|----------------------------|
--------------------------------|----------------------------|


                                                                
--------------------------------|------------------------------|
--5---x-5---x-------------------|------------------------------|
--5---x-5-----5h7h5---5/4-----4-|-----------------------5h4----|
--5---x-5-----------7-----7h5---|--7--x-x-7--x-x-7--x-x-----5--|
--------------------------------|--7--x-x-7--x-x-7--x-x--------|
--------------------------------|--5------5------5-------------|


                                                                         
-------------------|-------------------|--------------------------------|
-------------------|-------------------|--------------------------------|
-------------------|-------------------|--------------------------------|
--3----------------|--5----------------|--7--x-x-7--x-x-7h5---7-x-7h5---|
--3----------------|--5----------------|--7--x-x-7--x-x-----7---------7-|
--1----------------|--3----------------|--5------5----------------------|


                                                                       
------------------------------|-------------------|-------------------|
------------------------------|-------------------|-------------------|
------------------------------|-------------------|-------------------|
--7--x-x-7--x-x-7h5---7-x-7---|--3----------------|--5----------------|
--7--x-x-7--x-x-----7---------|--3----------------|--5----------------|
--5------5--------------------|--1----------------|--3----------------|


                                                                
--------------------------------|------------------------------|
--------------------------------|------------------------------|
--------------------------------|------------------------------|
--7--x-x-7--x-x-7h5---7-x-7h5---|--7--x-x-7--x-x-7h5---7-x-7---|
--7--x-x-7--x-x-----7---------7-|--7--x-x-7--x-x-----7---------|
--5------5----------------------|--5------5--------------------|


                                                            
-------------------|-------------------|-------------------|
--5~---------------|-------------------|-------------------|
--5~---------------|--2----------------|--0----------------|
-------------------|--3----------------|--0----------------|
-------------------|-------------------|-------------------|
-------------------|-------------------|-------------------|


                                                             
-------------------|-------------------|--------------------|
-------------------|--5----------------|---------------1----|
--2----------------|--5----------------|--2------------2----|
--2----------------|-------------------|--3------------3----|
-------------------|-------------------|--------------------|
-------------------|-------------------|--------------------|


                                                            
-------------------|-------------3------|------------------|
-------------------|-------------3------|------------------|
--7----------------|--------------------|------------------|
--7----------------|--5-----------------|------------------|
--5----------------|--5-----------------|------------------|
-------------------|--3-----------------|------------------|


                                                               
-------------------|---------------------|--------------------|
--5----------------|--6-5-5--------------|-------------5------|
--5----------------|------5--------------|--5----------5------|
--7----------------|---------------------|--7-----------------|
-------------------|---------------------|--------------------|
-------------------|---------------------|--------------------|


                                                               
--------------------|----3---------------|----3---------------|
----3---------------|--1h1---------------|--1h1---------------|
--4h4---------------|--------------------|--------------------|
--------------------|--------------------|--------------------|
--------------------|--------------------|--------------------|
--------------------|--------------------|--------------------|


                                                             
----3---------------|-------------------|-------------------|
--1h1---------------|-------------------|--5----------------|
--------------------|--2----------------|--5----------------|
--------------------|--2----------------|--7----------------|
--------------------|--0----------------|-------------------|
--------------------|-------------------|-------------------|


                                                                
---------------------|--------------------|--------------------|
--6-5-5--------------|-------------5------|----3---------------|
------5--------------|--5----------5------|--4h4---------------|
---------------------|--7-----------------|--------------------|
---------------------|--------------------|--------------------|
---------------------|--------------------|--------------------|


                                                               
----3---------------|----3---------------|----3---------------|
--1h1---------------|--1h1---------------|--1h1---------------|
--------------------|--------------------|--------------------|
--------------------|--------------------|--------------------|
--------------------|--------------------|--------------------|
--------------------|--------------------|--------------------|


                                                                          
--------------------|-------0h1h0------0h1h0--|--------8--12----8--------|
--------------------|-------------------------|----10--------------10----|
--2----------0------|--2----------------------|--------------------------|
--2----------0------|-------------------------|--------------------------|
--0-----------------|-------------------------|--------------------------|
--------------------|-------------------------|--------------------------|


                                              
--1h-0----------7------|----------7----------|
-----------------------|-------------8-------|
--2-------2--5/-7------|----------------7----|
-----------------------|---------------------|
-----------------------|---------------------|
-----------------------|---------------------|


                                                                
------------------------------|------------------13--13h12-----|
-----------8----8h6h5---6h5---|--------------13------------13--|
--5-----5-------------7-----7-|--5/------12--------------------|
-----5------------------------|-----5--------------------------|
------------------------------|--------------------------------|
------------------------------|--------------------------------|


                                                         
-----------------------------|--------------------------|
-----8----8----8h6h5---------|--------------------------|
--5-------5----------7h5/4---|--------------2h0---------|
---------------------------5-|--7~-----7/-------2h0-----|
-----------------------------|----------------------3h2-|
-----------------------------|--------------------------|


                                                          
-------------------|------------------|------------------|
-------------------|------------------|------------------|
-------------------|------------------|------------------|
-------------------|------------------|------------------|
--0----------------|------------------|------------------|
-------------------|------------------|------------------|


                                                         
------------------|------------------|------------------|
------------------|------------------|------------------|
------------------|------------------|------------------|
------------------|------------------|------------------|
------------------|------------------|------------------|
------------------|------------------|------------------|


                                                          
------------------|------------------|-------------------|
------------------|------------------|-------------------|
------------------|------------------|-------------------|
------------------|------------------|--3----------------|
------------------|------------------|--3----------------|
------------------|------------------|--1----------------|


                                                     
-------------------|--------------------------------|
-------------------|--------------------------------|
-------------------|--------------------------------|
--5----------------|--7--x-x-7--x-x-7h5---7-x-7h5---|
--5----------------|--7--x-x-7--x-x-----7---------7-|
--3----------------|--5------5----------------------|


                                                                       
------------------------------|-------------------|-------------------|
------------------------------|-------------------|-------------------|
------------------------------|-------------------|-------------------|
--7--x-x-7--x-x-7h5---7-x-7---|--3----------------|--5----------------|
--7--x-x-7--x-x-----7---------|--3----------------|--5----------------|
--5------5--------------------|--1----------------|--3----------------|


                                                                
--------------------------------|------------------------------|
--------------------------------|------------------------------|
--------------------------------|------------------------------|
--7--x-x-7--x-x-7h5---7-x-7h5---|--7--x-x-7--x-x-7h5---7-x-7---|
--7--x-x-7--x-x-----7---------7-|--7--x-x-7--x-x-----7---------|
--5------5----------------------|--5------5--------------------|


                                                            
-------------------|-------------------|-------------------|
--5~---------------|-------------------|-------------------|
--5~---------------|--2----------------|--0----------------|
-------------------|--3----------------|--0----------------|
-------------------|-------------------|-------------------|
-------------------|-------------------|-------------------|


                                                             
-------------------|-------------------|--------------------|
-------------------|--5----------------|---------------1----|
--2----------------|--5----------------|--2------------2----|
--2----------------|-------------------|--3------------3----|
-------------------|-------------------|--------------------|
-------------------|-------------------|--------------------|


                                                            
-------------------|-------------3------|------------------|
-------------------|-------------3------|------------------|
--7----------------|--------------------|------------------|
--7----------------|--5-----------------|------------------|
--5----------------|--5-----------------|------------------|
-------------------|--3-----------------|------------------|


                                                                     
---------------------|-------------------|--------------------------|
-----------------3h1-|-------------------|--------------------------|
--2------------------|--2----------------|--2--------4h5h4h2h4h2h0h-|
--2------------------|--2----------------|--2-----------------------|
--0------------------|--0----------------|--0-----------------------|
---------------------|-------------------|--------------------------|


                                                       
--3--3----3----3--3----|------------------------------|
--3--3----3----3--3----|-----8------8-8-8h6h5---6h5---|
--4--4----4----4--4/---|--5--5----------------7-----7-|
--5--5----5----5--5----|------------------------------|
-----------------------|------------------------------|
-----------------------|------------------------------|


                                                            
------------8-----8-----8---|------------------------------|
--------------8-----8-----8-|-----8------8-8-8h6h5---------|
--5-------------5-----5-----|--5--5----------------7h5/4---|
-----5----------------------|----------------------------5-|
----------------------------|------------------------------|
----------------------------|------------------------------|


                                                          
-------------------|------------------|------------------|
-------------------|------------------|------------------|
-------------------|------------------|------------------|
--2----------------|------------------|------------------|
--2----------------|------------------|------------------|
-------------------|------------------|------------------|


                                       
------------------|------------------||
------------------|------------------||
------------------|------------------||
------------------|------------------||
------------------|------------------||
------------------|------------------||

            
            
Suggest correction
Creating personal tab
Creating personal tab
You can edit any tab online and save it as your Personal.

You can edit, replace or remove any tab part or add personal notes – all changes will be seen only by you.

Personal tabs can be accessed anytime from any device, even offline.
Learn more »
Give kudos to tab author, rate the tab!
1 2 3 4 5
comments
print report bad tab
guest
Wanna post a correction for this tab? Suggest correction