Oops, an error
Loading. Please wait.

Flor Venenosa tab

version 1
version 1

Whole song

Interactive

251 views 1 this week
no commentswrite comment
1 2 3 4 5
3 more votes to show rating
add to favorites
×
Save as Personal and add changes to this tab that will be seen only by you. Learn more ›
×
You can save this tab as Personal to edit and correct it or add notes. All changes will be seen only by you. Learn more »
launch autoscroll
font size
0
reset
how to read this tab
guitar tuner
edit
Autoscroll
slow
fast
+/-
esc
set tempo
stop
Esta es el tab de la cancion Flor Venenosa del grupo español Heroes del
Silencio. Esta es una cancion bien sencilla de su primer disco "El Mar
no Cesa", incluso no tiene solo. La version tablada a continuacion es de
la presentacion acustica en Londres en 1994 para el programa de la
cadena MTV europa llamado "Most Wanted". La version a continuacion puede
no ser identica a la que toca Juan Valdivia pero si la tocas con el
ritmo caracteristico, la diferencia es minima. Espero que mas personas
amantes de HDS se "emocionen" y manden mas canciones tabladas de este
gran grupo.

Intro

    Dm               Fma7            C                C 

e|---------------------------------------------------------0--------
B|-------3----------------1-------------1----------------------1----
G|-----------2----------------2--------------0--------------------0-
D|---0----------------3-------------------------------2-------------
A|-----------------------------------3------------------------------
E|------------------------------------------------------------------

    Dm                Fma7            C                C
e|---------------------------------------------------------0--------
B|-------3-----------------1--------------1-------------1------1----
G|------------2----------------2--------------0-------------------0-
D|---0-----------------3-----------------------------2--------------
A|------------------------------------3-----------------------------
E|------------------------------------------------------------------

*primera y segunda guitarra tocan los acordes

Dm             F              C     G
No encuentro palabras para decirlo
Dm         F 
y a veces siento 
             C
que el pensamiento
G         Dm         F    C     G
es un idioma de signos, sin sentido
Dm    F    C   G
uh , uh , uh , uh   [INTRO]

Dm            F                   C       G
No siempre entiendo que sucede conmigo
Dm      F       C
zarandeando me voy
    G        Dm   F
hasta que caigo   
C       G        Dm
terriblemente borracho
    F    C    G
oh , oh, oh, oh      [INTRO]

Coro 

*la primera guitarra durante el coro toca el intro con bien pocas
variaciones  
                 F
Tan solo dejame estar
   A#      C
momento a solas
  F      A#     C
uh uh uh ,  uh uh uh
F                   A#      C
tan solo dejame en paz
          F           A#     
este intervalo de tiempo 
 C              F           A#
que siempre estado perdiendo
          C         Dm    
quizas en este precioso momento
C           Dm   F  C  G    Dm   F  C  G
pueda ser como tu          como tu 
Dm   F  C  G         Dm   F  
como tu             como tu  

C          G
Ya sabes que
Dm           F            C        G
Prefiero explotar de tanto alcohol  
Dm         F          C           G
con tu jarabe de flor venenosa
Dm              F        C         G
y vender a una madre por otra copa
Dm   F  C    G
au au au au          [INTRO]

Coro

"SOLO"  x  4

      EL "Solo" esta compuesto por cuatro acordes:

     Dm        A#        Fsus2    C
e|---5---------6---------8--------8--
B|---6---------6---------8--------8--
G|---7---------7--------10--------9--
D|---7---------8--------10-------10--
A|---5---------8---------8-------10--
E|---5---------6---------8--------8--

Hay que darles el ritmo adecuado

[INTRO]


Coro   x    2

            
            
Suggest correction
Creating personal tab
Creating personal tab
You can edit any tab online and save it as your Personal.

You can edit, replace or remove any tab part or add personal notes – all changes will be seen only by you.

Personal tabs can be accessed anytime from any device, even offline.
Learn more »
Give kudos to tab author, rate the tab!
1 2 3 4 5
comments
print report bad tab
guest
Wanna post a correction for this tab? Suggest correction