Oops, an error
Loading. Please wait.

Flor Venenosa bass

version 1
version 1

Whole song

Interactive

326 views 1 this week
no commentswrite comment
1 2 3 4 5
3 more votes to show rating
add to favorites
×
Save as Personal and add changes to this tab that will be seen only by you. Learn more ›
×
You can save this tab as Personal to edit and correct it or add notes. All changes will be seen only by you. Learn more »
launch autoscroll
font size
0
reset
guitar tuner
edit
Autoscroll
slow
fast
+/-
esc
set tempo
stop
DESDE EL PRINCIPIO EL BAJEO DE LA ROLA ES ASI:

INTRO:
G||---0--0-3-3----320----0--0-3-3-----3--2--||
D||------------3-3---3-------------3-3------||
A||-----------------------------------------||
E||-----------------------------------------||

Y EL CORO COMIENZA EN C DONDE DICE 'TAN SOLO DEJAME 
ESTAR...'
TAN SOLO DEJAME ESTAR
UN MOMENTO ASOLAS MMM...
G||-----------------------------------||
D||-----------------------------------||
A||---3333333h8-8-1-1-3-3333h8-8-1-1-3||
E||-----------------------------------||

TAN SOLO DEJAME EN PAZ 
ESTE INTERVALO DE TIEMPO...
G||-----------------------------------||
D||-----------------------------------||
A||---33321-1-3-3h8-0-1-1-3-3h8-------||
E||-----------------------------------||

QUIZAS EN ESTE PRECIOSO MOMENTO
PUEDA SER... COMO TU
G||-----------------------------------||
D||----------------------30-----------||
A||---888-0-1-1-3-3-5-55---3-333------||
E||-----------------------------------||

Y VUELVE DESDE EL PRINCIPIO

DEPUES ESTE ES EL SOLO
G||-------------------------||
D||-----------33333---------||   X4
A||---5-5-1-1------3333-----||
E||-------------------------||

NO SE CONFUNDAN EL RITMO Y LOS TIEMPOS SON UN POCO 
RAPIDOS PERO CON MUCHA PRACTICA SALE LOS NUMEROS
QUE ESTAN JUNTOS SON TRASTES MUY PEGADOS POR
EJEMPLO: EN 320 SON SEGUIDITAS.
SUERTE!! ESUN BAJEO MUY PADRE DISFRUTENLO

            
            
Suggest correction
Creating personal tab
Creating personal tab
You can edit any tab online and save it as your Personal.

You can edit, replace or remove any tab part or add personal notes – all changes will be seen only by you.

Personal tabs can be accessed anytime from any device, even offline.
Learn more »
Give kudos to tab author, rate the tab!
1 2 3 4 5
comments
print report bad tab
guest
Wanna post a correction for this tab? Suggest correction