Oops, an error
Loading. Please wait.

Flor Venenosa tab

version 2
version 2

Whole song

Interactive

139 views 1 this week
no commentswrite comment
1 2 3 4 5
3 more votes to show rating
add to favorites
×
Save as Personal and add changes to this tab that will be seen only by you. Learn more ›
×
You can save this tab as Personal to edit and correct it or add notes. All changes will be seen only by you. Learn more »
launch autoscroll
font size
0
reset
how to read this tab
guitar tuner
edit
Autoscroll
slow
fast
+/-
esc
set tempo
stop
Dato: Lun, 24 de septiembre, 11:52:41 PM
Por Omar Vidal

    Flor Venenosa

Héroes del Silencio
Música: P. Andreu, E. Bunbury, J. Cardiel & J. Valdivia
Álbum: El Mar no cesa, Para siempre


Este es el remix de la canción que está en el CD
Héroes del Silencio: Canciones '84 - '96, en el CD #2.
Espero y la hayan oido.


  INTRO

 
    Dm        F             C        G
e|-----------------------------------------------|
B|-----3-------------1---------1----------1------|
G|-------2-------------2---------0----------0----|
D|--0---------0h2h3------------------0h2------2--|  x2
A|--------------------------3--------------------|
E|-----------------------------------------------|


  VERSO 1 (..no encuentro palabras para decirlo...) 

  (en los versos siempre se efectúan estos ragueos) 

    Dm   F    C    G
e|--5----5----8----7--|
B|--6----6----8----8--|
G|--7----5----9----7--|
D|--7----7----10------|  x4
A|--5----8----10------|
E|-------5------------|


  RITMO

    Dm        F             C        G
e|-----------------------------------------------|
B|-----3-------------1---------1----------1------|
G|-------2-------------2---------0----------0----|
D|--0---------0h2h3------------------0h2------2--|  
A|--------------------------3--------------------|
E|-----------------------------------------------|


     Dm        F             C        G
e|--------------------------------------0--------|
B|-----3-------------1---------1------1---1------|
G|-------2-------------2---------0----------2-0--|
D|--0---------0h2h3------------------------------|  
A|--------------------------3--------------------|
E|-----------------------------------------------|


  VERSO 2 (... no siempre entiendo lo que sucede conmigo..)


  RITMO


  ESTRIBILLO (...tan solo déjame estar un momento a solas...)

    F           A#          C
e|--------------------1--------------0---------|
B|------1----------------1--1-----------1------|
G|---------2----2h4h5----------0-----------0---|  x2
D|---------------------------------------------|
A|---------------------------------3-----------|
E|--1------------------------------------------|


  luego...  (tan solo déjame en paz...)

    F#        C              F
e|--1---------------5--3-----5--------5--------|
B|-----3------3h5h6------6------6--------6-----|
G|--------3------------------------5--------5--|
D|---------------------------------------------|
A|---------------------------------------------|
E|---------------------------------------------|

    F#        C              F
e|-----1------------5--3-----8--------8--------|
B|--------3---3h5h6------6------6--------6-----|
G|--3------------------------------5--------5--|
D|---------------------------------------------|
A|---------------------------------------------|
E|---------------------------------------------|


     (...quizás en este precioso momento...)

    F#        C              Dm
e|-----1------------5--3-----1--------5--------|
B|--------3---3h5h6------6------3--------3-----|
G|--3------------------------------2--------2--|
D|---------------------------------------------|
A|---------------------------------------------|
E|---------------------------------------------|

    C
e|--0---------1----0--------|
B|-----1--------1-----1-----|
G|--------0--------------0--|
D|--------------------------|
A|--------------------------|
E|--------------------------|


  RITMO (doble)

     Dm        F             C        G
e|--------------------------------------0--------|
B|-----3-------------1---------1------1---1------|
G|-------2-------------2---------0----------2-0--|
D|--0---------0h2h3------------------------------|  
A|--------------------------3--------------------|
E|-----------------------------------------------|


    Dm        F             C        G
e|-----------------------------------------------|
B|-----3-------------1---------1----------1------|
G|-------2-------------2---------0----------0----|
D|--0---------0h2h3------------------0h2------2--|  
A|--------------------------3--------------------|
E|-----------------------------------------------|


   Dm        F             C        G
e|-----------------------------------------------|
B|-----3-------------1---------1----------1------|
G|-------2-------------2---------0----------0----|
D|--0---------0h2h3------------------0h2------2--|  
A|--------------------------3--------------------|
E|-----------------------------------------------|


     Dm        F             C        G
e|--------------------------------------0--------|
B|-----3-------------1---------1------1---1------|
G|-------2-------------2---------0----------2-0--|
D|--0---------0h2h3------------------------------|  
A|--------------------------3--------------------|
E|-----------------------------------------------|
  


   VERSO 3  (...prefiero explotar de tanto alcohol...)


   RITMO


   ESTRIBILLO


  (después de estribillo)
  (...como tú...como tú...)

   Dm         A#            C
e|------5----------6------------8------------8------|
B|--------6----------6------------8------------8----|
G|----------7----------7------------9------------9--|  x4
D|--------------------------------------------------|
A|--5-----------------------------------------------|  
E|-------------6------------8------------8----------|


  INTERLUDE (tómale el ritmo a estos rasgueos)
             
    Dm   A#   Fsus2 C
e|--5----6----8-----8---|
B|--6----6----8-----8---|
G|--7----7----10----9---|
D|--7----8----10----10--|  x4
A|--5----8----------10--|
E|----------------------|


  RITMO

 
  ESTRIBILLO


   (...uhuuuu...)

    Dm                       C
e|-----5------------5--------------------------------|
B|-------6------------6---------8------------8-------|
G|---------7------------7---------9------------9-----|
D|----------------------------------10-----------10--|
A|--5-----------5------------8------------8----------|
E|---------------------------------------------------|  


  ESTRIBILLO  (con variaciones)


 OUTRO  (...uhuuuuu, uhmmm...)

    F           A#          C                    F
e|--------------------1--------------1----0------1--|
B|------1----------------1--1----------3----1----1--|
G|---------2----2h4h5----------0--------------2--2--|  
D|-----------------------------------------------3--|
A|---------------------------------3-------------3--|
E|--1--------------------------------------------1--|


 100% correcto!

dudas, correciones, comentarios, lo que sea...

 Omar -
   - Vidal         ometal666@      Viva el Rock | Paz

            
            
Suggest correction
Creating personal tab
Creating personal tab
You can edit any tab online and save it as your Personal.

You can edit, replace or remove any tab part or add personal notes – all changes will be seen only by you.

Personal tabs can be accessed anytime from any device, even offline.
Learn more »
Give kudos to tab author, rate the tab!
1 2 3 4 5
comments
print report bad tab
guest
Wanna post a correction for this tab? Suggest correction