Oops, an error
Loading. Please wait.

Flor Venenosa tab

version 3
version 3

Whole song

Interactive

122 views 1 this week
no commentswrite comment
1 2 3 4 5
3 more votes to show rating
add to favorites
×
Save as Personal and add changes to this tab that will be seen only by you. Learn more ›
×
You can save this tab as Personal to edit and correct it or add notes. All changes will be seen only by you. Learn more »
launch autoscroll
font size
0
reset
how to read this tab
guitar tuner
edit
Autoscroll
slow
fast
+/-
esc
set tempo
stop
Hey!!!!!!!!!!
esta es la version del album Tour 07,
pero se escucha bn para la version de
estudio y la version acustika de Parasiempre
hechenle, no es nada dificil esta cancion

INTRO
     Dm        F             C        G
e|-----------------------------------------------|
B|-----3-------------1---------1----------1------|
G|-------2-------------2---------0----------0----|
D|--0---------0h2h3------------------0h2------2--|
A|--------------------------3--------------------|
E|-----------------------------------------------|

     Dm        F             C        G
e|--------------------------------------0--------|
B|-----3-------------1---------1------1---1------|
G|-------2-------------2---------0----------2-0--|
D|--0---------0h2h3------------------------------|
A|--------------------------3--------------------|
E|-----------------------------------------------|

  VERSO 1

    No encuentro palabras para decirlo...

    Dm   F    C    G
e|--5----5----3----3--|
B|--6----6----5----3--|
G|--7----5----5----4--|
D|--7----7----5----5--|
A|--5----8----3----5--|
E|--------------------|

    Dm   F    C    G             x2
e|--5----5----8----7--|     /
B|--6----6----8----8--|    /
G|--7----5----9----7--|   /
D|--7----7----10------|  /
A|--5----8----10------| /
E|--------------------|/

    Dm         F             C        G
e|-----------------------------------------------|
B|-----3-------------1---------1----------1------|
G|-------2-------------2---------0----------0----|
D|--0---------0h2h3------------------0h2------2--|
A|--------------------------3--------------------|
E|-----------------------------------------------|

    Dm         F             C        G
e|--------------------------------------0--------|
B|-----3-------------1---------1------1---1------|
G|-------2-------------2---------0----------2-0--|
D|--0---------0h2h3------------------------------|
A|--------------------------3--------------------|
E|-----------------------------------------------|

VERSO 2

No siempre entiendo lo que sucede conmigo...

    Dm   F    C    G
e|--5----5----3----3--|
B|--6----6----5----3--|
G|--7----5----5----4--|
D|--7----7----5----5--|
A|--5----8----3----5--|
E|--------------------|

    Dm   F    C    G           x2
e|--5----5----8----7--|      /
B|--6----6----8----8--|     /
G|--7----5----9----7--|    /
D|--7----7----10------|   /
A|--5----8----10------|  /
E|--------------------| /

    Dm        F             C        G
e|-----------------------------------------------|
B|-----3-------------1---------1----------1------|
G|-------2-------------2---------0----------0----|
D|--0---------0h2h3------------------0h2------2--|
A|--------------------------3--------------------|
E|-----------------------------------------------|

    Dm         F             C        G
e|--------------------------------------0--------|
B|-----3-------------1---------1------1---1------|
G|-------2-------------2---------0----------2-0--|
D|--0---------0h2h3------------------------------|
A|--------------------------3--------------------|
E|-----------------------------------------------|

ESTRIBILLO

   tan solo déjame estar un momento a solas...
    F           A#          C
e|--------------------1--------------0---------|
B|------1----------------1--1-----------1------|
G|---------2----2h4h5----------0-----------0---|  x2
D|---------------------------------------------|
A|---------------------------------3-----------|
E|--1------------------------------------------|

   tan solo déjame en paz...
    F#        C                 F
e|-----------------------------5-----5-------|
B|-----6-------------10--8-------6-----6-----|
G|--------7---7h9h10-------10------5-----5---|
D|--8----------------------------------------|
A|-------------------------------------------|
E|-------------------------------------------|

    F#        C                 F
e|-----------------------------8-----8-------|
B|-----6-------------10--8-------6-----6-----|
G|--------7---7h9h10-------10------5-----5---|
D|--8----------------------------------------|
A|-------------------------------------------|
E|-------------------------------------------|

     quizás en este precioso momento...
    F#        C                 Dm
e|----------------------------------5--------|
B|-----6-------------10--8------6------------|
G|--------7---7h9h10-------10-----7-----7----|
D|--8-------------------------------7-----7--|
A|-------------------------------------------|
E|-------------------------------------------|

    C
e|--------------------------|
B|--5-----5----5------------|
G|----5-----6----5----------|
D|------5----------5--------|
A|--------------------------|
E|--------------------------|

    Dm        F             C        G
e|-----------------------------------------------|
B|-----3-------------1---------1----------1------|
G|-------2-------------2---------0----------0----|
D|--0---------0h2h3------------------0h2------2--|
A|--------------------------3--------------------|
E|-----------------------------------------------|
                                                           x2
    Dm         F             C        G                 /
e|--------------------------------------0--------|     /
B|-----3-------------1---------1------1---1------|    /
G|-------2-------------2---------0----------2-0--|   /
D|--0---------0h2h3------------------------------|  /
A|--------------------------3--------------------| /
E|-----------------------------------------------|/

VERSO 3

Prefiero explotar de tanto alcohol...
    Dm   F    C    G
e|--5----5----3----3--|
B|--6----6----5----3--|
G|--7----5----5----4--|
D|--7----7----5----5--|
A|--5----8----3----5--|
E|--------------------|

    Dm   F    C    G           x2
e|--5----5----8----7--|      /
B|--6----6----8----8--|     /
G|--7----5----9----7--|    /
D|--7----7----10------|   /
A|--5----8----10------|  /
E|--------------------| /

    Dm        F             C        G
e|-----------------------------------------------|
B|-----3-------------1---------1----------1------|
G|-------2-------------2---------0----------0----|
D|--0---------0h2h3------------------0h2------2--|
A|--------------------------3--------------------|
E|-----------------------------------------------|

    Dm         F             C        G
e|--------------------------------------0--------|
B|-----3-------------1---------1------1---1------|
G|-------2-------------2---------0----------2-0--|
D|--0---------0h2h3------------------------------|
A|--------------------------3--------------------|
E|-----------------------------------------------|

ESTRIBILLO

   tan solo déjame estar un momento a solas...
    F           A#          C
e|--------------------1--------------0---------|
B|------1----------------1--1-----------1------|
G|---------2----2h4h5----------0-----------0---|  x2
D|---------------------------------------------|
A|---------------------------------3-----------|
E|--1------------------------------------------|

   tan solo déjame en paz...
    F#        C                 F
e|-----------------------------5-----5-------|
B|-----6-------------10--8-------6-----6-----|
G|--------7---7h9h10-------10------5-----5---|
D|--8----------------------------------------|
A|-------------------------------------------|
E|-------------------------------------------|

    F#        C                 F
e|-----------------------------8-----8-------|
B|-----6-------------10--8-------6-----6-----|
G|--------7---7h9h10-------10------5-----5---|
D|--8----------------------------------------|
A|-------------------------------------------|
E|-------------------------------------------|

     quizás en este precioso momento...
    F#        C                 Dm
e|----------------------------------5--------|
B|-----6-------------10--8------6------------|
G|--------7---7h9h10-------10-----7-----7----|
D|--8-------------------------------7-----7--|
A|-------------------------------------------|
E|-------------------------------------------|

    C
e|--------------------------|
B|--5-----5----5------------|
G|----5-----6----5----------|
D|------5----------5--------|
A|--------------------------|
E|--------------------------|

    Dm         A#            C
e|------5----------6------------8------------8------|
B|--------6----------6------------8------------8----|
G|----------7----------7------------9------------9--|  x4
D|--------------------------------------------------|
A|--5-----------------------------------------------|
E|-------------6------------8------------8----------|

SOLO (tómale el ritmo a estos rasgueos)

    Dm   A#   Fsus2 C
e|--5----6----8-----8---|
B|--6----6----8-----8---|
G|--7----7----10----9---|
D|--7----8----10----10--|  x4
A|--5----8----------10--|
E|----------------------|

    Dm        F             C        G
e|-----------------------------------------------|
B|-----3-------------1---------1----------1------|
G|-------2-------------2---------0----------0----|
D|--0---------0h2h3------------------0h2------2--|
A|--------------------------3--------------------|
E|-----------------------------------------------|

    Dm         F             C        G
e|--------------------------------------0--------|
B|-----3-------------1---------1------1---1------|
G|-------2-------------2---------0----------2-0--|
D|--0---------0h2h3------------------------------|
A|--------------------------3--------------------|
E|-----------------------------------------------|

ESTRIBILLO

   tan solo déjame estar un momento a solas...
    F           A#          C
e|--------------------1--------------0---------|
B|------1----------------1--1-----------1------|
G|---------2----2h4h5----------0-----------0---|  x2
D|---------------------------------------------|
A|---------------------------------3-----------|
E|--1------------------------------------------|

   tan solo déjame en paz...
    F#        C                 F
e|-----------------------------5-----5-------|
B|-----6-------------10--8-------6-----6-----|
G|--------7---7h9h10-------10------5-----5---|
D|--8----------------------------------------|
A|-------------------------------------------|
E|-------------------------------------------|

    F#        C                 F
e|-----------------------------8-----8-------|
B|-----6-------------10--8-------6-----6-----|
G|--------7---7h9h10-------10------5-----5---|
D|--8----------------------------------------|
A|-------------------------------------------|
E|-------------------------------------------|

     quizás en este precioso momento...
    F#        C                 Dm
e|----------------------------------5--------|
B|-----6-------------10--8------6------------|
G|--------7---7h9h10-------10-----7-----7----|
D|--8-------------------------------7-----7--|
A|-------------------------------------------|
E|-------------------------------------------|

    C
e|--------------------------|
B|--5-----5----5------------|
G|----5-----6----5----------|
D|------5----------5--------|
A|--------------------------|
E|--------------------------|

   Dm                        C
e|-----5------------5--------------------------------|
B|-------6------------6---------8------------8-------|
G|---------7------------7---------9------------9-----|
D|----------------------------------10-----------10--|
A|--5-----------5------------8------------8----------|
E|---------------------------------------------------|

    F           A#          C
e|--------------------1--------------0---------|
B|------1----------------1--1-----------1------|
G|---------2----2h4h5----------0-----------0---|  x3
D|---------------------------------------------|
A|---------------------------------3-----------|
E|--1------------------------------------------|

    F           A#          C                    F
e|--------------------1--------------1----0------1--|
B|------1----------------1--1----------3----1----1--|
G|---------2----2h4h5----------0--------------2--2--|
D|-----------------------------------------------3--|
A|---------------------------------3-------------3--|
E|--1--------------------------------------------1--|

            
            
Suggest correction
Creating personal tab
Creating personal tab
You can edit any tab online and save it as your Personal.

You can edit, replace or remove any tab part or add personal notes – all changes will be seen only by you.

Personal tabs can be accessed anytime from any device, even offline.
Learn more »
Give kudos to tab author, rate the tab!
1 2 3 4 5
comments
print report bad tab
guest
Wanna post a correction for this tab? Suggest correction