Oops, an error
Loading. Please wait.

Fuente Esperanza tab

version 1
version 1

Whole song

Interactive

199 views 3 this week
no commentswrite comment
1 2 3 4 5
3 more votes to show rating
add to favorites
×
Save as Personal and add changes to this tab that will be seen only by you. Learn more ›
×
You can save this tab as Personal to edit and correct it or add notes. All changes will be seen only by you. Learn more »
launch autoscroll
font size
0
reset
how to read this tab
guitar tuner
edit
Autoscroll
slow
fast
+/-
esc
set tempo
stop
       ok soy yo otra ves y este es fuente esperanza pero
   es la verion live de el 2007 espero que les guste...
 aver si mas alrato mando a nuestros nombres de la version live de
el tour 2007...

    A
e.--------4--------------4--------------4-----------'
b.--5---5---5------5---5---5------5---5---5---------'
g.----6-------6------6-------6------6-------6-------'
d.7--------------7--------------7--------------7----'
a.--------------------------------------------------'
E.--------------------------------------------------'


                  F#m
e.------4----------2-----2----2------2---------2----'
b.5---5---5----------2-2---2-2---2-3---3-----3------'
g.--6-------6----------------------------4-4--------'
d.-------------7------------------------------------'
a.--------------------------------------------------'
E.--------------------------------------------------'

  G#m                         F#m
e.4-----4-----4-----4--4-5-4--2-----2-----2-----2---------2-'
b.--4-4---4-4---4-5--5----------2-2---2-2---2-3---3-----3---'
g.--------------------------------------------------4-4-----'
d.----------------------------------------------------------'
a.----------------------------------------------------------'
E.----------------------------------------------------------'

  F#m
e.4-----4-----4-----4--4-5-4--'
b.--4-4---4-4---4-5--5--------'
g.----------------------------'
d.----------------------------'
a.----------------------------'
E.----------------------------'


F#m        D       E   C#m     D E
Ocultarme como un rio subterraneo
   F#m           D  E     C#m
gritaba como un nino de inevitable temor
     F#m         D E   C#m      D E
una mala borrasca  me hizo buscar
    F#m         D E       C#m
un poco de calma   en un sueno a escondidas


D           E
Siempre buscando una fuente
   A             F#m
para poder respirar
D                     E
cuando diviso un pasadizo a lo lejos
  A          E
creo enloquecer

   F#m
e.-2-------2-----2------2--------2---'
b.---2-2----2-2----2-3----3----3-----'
g--------------------------4-4-------'
d------------------------------------'
a.-----------------------------------'
E.-----------------------------------'

  G#m                         F#m
e.4-----4-----4-----4--4-5-4--2-----2-----2-----2---------2-'
b.--4-4---4-4---4-5--5----------2-2---2-2---2-3---3-----3---'
g.--------------------------------------------------4-4-----'
d.----------------------------------------------------------'
a.----------------------------------------------------------'
E.----------------------------------------------------------'

  G#m
e.4-----4-----4-----4--4-5-4--'
b.--4-4---4-4---4-5--5--------'
g.----------------------------'
d.----------------------------'
a.----------------------------'
E.----------------------------'

  F#m          D
Apartarme de los ruidos
  E       C#m      D E
que escuchabamos ayer
    F#m           D  E C#m
perderme en el olvido solitario
       F#m         D E         C#m        D E
y echare por tierra   todo un mundo creado
       F#m          D E       C#m
desde tiempos de Eva   en un pozo sin fondo


D           E
Siempre buscando una fuente
   A             F#m
para poder respirar
D                     E
cuando diviso un pasadizo a lo lejos
  A          E
creo enloquecer

 F#m
e.2---2h3p2-2---2-----2---------2-----'
b.--2---------2---2-3---3-----3-------'
g.------------------------4-4---------'
d.------------------------------------'
a.------------------------------------'
E.------------------------------------'

  G#m
e.4---4h5p4-4---4-----4---------4-----'
b.--4---------4---4-5---5-----5-------'
g.------------------------6-6---------'
d.------------------------------------'
a.------------------------------------'
E.------------------------------------'


 F#m
e.2---2h3p2-2---2-----2---------2-----'
b.--2---------2---2-3---3-----3-------'
g.------------------------4-4---------'
d.------------------------------------'
a.------------------------------------'
E.------------------------------------'


G#m
e.4---4h5p4-4---4-----4---------4-----'
b.--4---------4---4-5---5-----5-------'
g.------------------------6-6---------'
d.------------------------------------'
a.------------------------------------'
E.------------------------------------'

D           E
Siempre buscando una fuente
   A             F#m
para poder respirar
D                     E
cuando diviso un pasadizo a lo lejos
  A          E   A
creo enloquecer


    A
e.--------4--------------4--------------4----------'
b.--5---5---5------5---5---5------5---5---5--------'
g.----6-------6------6-------6------6-------6------'
d.7--------------7--------------7------------------'
a.-------------------------------------------------'
E.-------------------------------------------------'


    A
e.--------4--------------4--------------4-----------'
b.--5---5---5------5---5---5------5---5---5---------'
g.----6-------6------6-------6------6-------6-------'
d.7--------------7--------------7--------------7----'
a.--------------------------------------------------'
E.--------------------------------------------------'


    A
e.--------4--------------4--------'
b.--5---5---5------5---5---5------'
g.----6-------6------6-------6----'
d.--------------7-----------------'
a.--------------------------------'
E.--------------------------------'

bueno eso es todo cuando
sepa el guitar solo lo mando porque es
bien dificil.

            
            
Suggest correction
Creating personal tab
Creating personal tab
You can edit any tab online and save it as your Personal.

You can edit, replace or remove any tab part or add personal notes – all changes will be seen only by you.

Personal tabs can be accessed anytime from any device, even offline.
Learn more »
Give kudos to tab author, rate the tab!
1 2 3 4 5
comments
print report bad tab
guest
Wanna post a correction for this tab? Suggest correction