Oops, an error
Loading. Please wait.

Hace Tiempo tab

version 1
version 1

Whole song

Interactive

94 views 1 this week
no commentswrite comment
1 2 3 4 5
3 more votes to show rating
add to favorites
×
Save as Personal and add changes to this tab that will be seen only by you. Learn more ›
×
You can save this tab as Personal to edit and correct it or add notes. All changes will be seen only by you. Learn more »
launch autoscroll
font size
0
reset
how to read this tab
guitar tuner
edit
Autoscroll
slow
fast
+/-
esc
set tempo
stop
HACE TIEMPO (HEROES DEL SILENCIO)
.............................
.............................

INTRO:aconsejo posicion inicial con dedo indice de cejilla en el 2º traste
e-------------------------------4----4----------------------------------4----
B-2--3--2---5--2---2--0------2----2----2--1--2---5--2---5-4--2----------5----
G----------2------2-------1---------------------2------2--------4--1----6----
D---------------------------2-------------------------------------------6----
A-----------------------------------------------------------------------4----
E-----------------------------------------------------------------------4----

LETRA:aconsejo posicion inicial (044220)prog:Fm#,E,Cm#,Fm#,Gm#,Cm#
e-------0---------4---0--9º--7º--5--------0--------------4--------------------
B-----2---2--------5--------------------2---2----4-------5--------------------
G---2-------2/4-----------------------2-------2----4-----6--------------------
D-4----------------------------------4----------------6--6-------------------
A--------------------------------------------------------4-------------------
E--------------------------------------------------------4------------------
ESTRIBILLO: prog:D,E,Cm#,Fm#
e-------------------0---------2-4-4-2---------------------0-------2-4-4-2----
B-2-2-3-2-0-------0----2-2-2-----------2--2-3-2-0-------0---2-2-2----------2-
G------------1---1-----------------------1--------1---1------------------------1
D--------------2------------------------------------2----------------------------
A----------------------------------------------------------------------------------
E-----------------------------------------------------------------------------------

e-----------------0--------2-4-4-2------------------0-------------
B-2-3-2-0------0-----2-2-2---------2--2-3-2-0------0----4-2-----2---
G---------1--1-----------------------1---------1--1---------4-1-----
D-----------2------------------------------------2------------------
A--------------------------------------------------------------------
E---------------------------------------------------------------------

VERSE 1:
TENGO MOMENTOS EN QUE SOLO RECUERDO UNA CONVERSACION
QUIZAS SOLO FUERAN PALABRAS DESNUDAS
PERO DE CORAZON

CHORUS:
HACE TIEMPO QUE YA NO TE VEO QUIZAS NO TE LLAMO POR QUE NO ME ATREVO
HECE TIEMPO QUE YA NO TE VEO ¿HABREMOS CAMBIADO? QUIZAS A PEOR

VERSE 2:
TENGO MOMENTOS EN QUE SOLO RECUERDO UNA REVOLUCION
GUERREROS SALVAJES CON ARMAS DE BARRO ¿EN QUE SE QUEDO?

(CHORUS)

O QUIZAS QUIZAS QUIZAS A PEOR
QUIZAS A PEOR
A PEOR
QUIZAS QUIZAS QUIZAS A PEOR
HACE TIEMPO QUE YA NO TE VEO QUIZAS NO TE LLAMO POR QUE NO ME ATREVO
HECE TIEMPO QUE YA NO TE VEO ¿HABREMOS CAMBIADO? CREEMOS QUE SI

BRIDGE: D,Fm#

El solo de guitarra lo dejo a libre inspiracion

CHORUS + QUIZAS A PEOOOOOOOOOOOOOOOOOOOOOOOOOOOOOOOOOOOOOOOOOOOOR

NOTACION:
 / SLIDE
 Xº :martilleo para que de un solo golpe suenen el traste X y al aire


Transcrito por Victor M. Palomino <victormanu@

            
            
Suggest correction
Creating personal tab
Creating personal tab
You can edit any tab online and save it as your Personal.

You can edit, replace or remove any tab part or add personal notes – all changes will be seen only by you.

Personal tabs can be accessed anytime from any device, even offline.
Learn more »
Give kudos to tab author, rate the tab!
1 2 3 4 5
comments
print report bad tab
guest
Wanna post a correction for this tab? Suggest correction