Oops, an error
Loading. Please wait.

Hace Tiempo tab

version 2
version 2

Whole song

Interactive

205 views 1 this week
no commentswrite comment
1 2 3 4 5
3 more votes to show rating
add to favorites
×
Save as Personal and add changes to this tab that will be seen only by you. Learn more ›
×
You can save this tab as Personal to edit and correct it or add notes. All changes will be seen only by you. Learn more »
launch autoscroll
font size
0
reset
how to read this tab
guitar tuner
edit
Autoscroll
slow
fast
+/-
esc
set tempo
stop
Hola que tal amigos Guitarristas, esta es la tablatura
de esta gran canción en su verción "En Directo".

Notas.

1.- Les aconcejo que practiquen escuchando la canción
"Hace Tiempo (En Directo)"

2.- Le puse los minutos y segundos que le pertenecen a cada
parte en la canción, para que los tomen de referencia.

3.- Los numeros que estan encerrados en "()" indican
que se deve utilizar una tecnica llamada "bending guitar",
si no saben como es, investiguenlo porque es muy util.

4.- Para varias partes de la canción les
recomiendo que hagan una especie de cegilla:

1.-3-
2.-4-
3.-5-
4.-3- es muy util y facilita mucho las cosas.

Creo que eso es todo.


COMENCEMOS


0:32      (Cegilla antes mencionada)
1.---------------------3---3--------------------------3-
2.---------4---------------------------4----4-3-------4-
3.--5-6-5----5--5-3------5---5--5-6-5----5------5-3---5-
4.--------3---------5-----------------3-------------5-3-
5.------------------------------------------------------
6.------------------------------------------------------

0:40
1.---------------------3---3--------------------------3-
2.---------4---------------------------4----4-3-------4-
3.--5-6-5----5--5-3------5---5--5-6-5----5------5-3---5-
4.--------3---------5-----------------3-------------5-3-
5.------------------------------------------------------
6.------------------------------------------------------

Tengo momentos en que solo recuerdo...
0:50      (Cegilla)
1.----------------3-----------------------------------------3-
2.--------4--------------13----11--------------4------3-----4-
3.------5---5---3--------------------12------5---5------3---5-
4.--3-6-------6-----3/10----10----10-----3-6--------5-----3-3-
5.------------------------------------------------------------
6.------------------------------------------------------------

... solo fueran palabras desnudas...
0:59
1.----------------3-----------------------------------------3-
2.--------4--------------13----11--------------4------3-----4-
3.------5---5---3--------------------12------5---5------3---5-
4.--3-6-------6-----3/10----10----10-----3-6--------5-----3-3-
5.------------------------------------------------------------
6.------------------------------------------------------------

Hace tiempo que ya no te veo...
1:07      (Cegilla)
1.--------------------------3-------------------------------3-----
2.-----------------4-3----3---6---------------------4-3---3---6---
3.-5-6-5-3-------3-----5--------5---5-6-5-3-------3-----5-------5-
4.---------5---5----------------------------5---5-----------------
5.-----------6--------------------------------6-------------------
6.----------------------------------------------------------------

Hace tiempo que ya no te veo,  habremos cambiado...
1:16
1.--------------------------3----------------------------------3-
2.-----------------4-3----3---6----------------------4-3-------4-
3.-5-6-5-3-------3-----5--------5---5-6-5-3-------3------5-3---5-
4.---------5---5----------------------------5---5------------5-3-
5.-----------6--------------------------------6------------------
6.---------------------------------------------------------------

1:25      (Cegilla)
1.----------------3-----------------------------------------3-
2.--------4--------------13----11--------------4------3-----4-
3.------5---5---3--------------------12------5---5------3---5-
4.--3-6-------6-----3/10----10----10-----3-6--------5-----3-3-
5.------------------------------------------------------------
6.------------------------------------------------------------


Tengo momentos en que solo recuerdo, una revolución...
1:34
1.----------------3---------------------------------------------------3-
2.--------4--------------13----11--------------4----4-3/4/3---3-------4-
3.------5---5---3--------------------12------5---5----------5---5-3---5-
4.--3-6-------6-----3/10----10----10-----3-6------------------------5-3-
5.----------------------------------------------------------------------
6.----------------------------------------------------------------------


... salvages con armas de barro...
1:43
1.----------------3-----------------------------------------3-
2.--------4--------------13----11--------------4------3-----4-
3.------5---5---3--------------------12------5---5------3---5-
4.--3-6-------6-----3/10----10----10-----3-6--------5-----3-3-
5.------------------------------------------------------------
6.------------------------------------------------------------

Hace tiempo que ya no te veo...
1:52
1.-----------------------------------------
2.-----------------------------------------
3.--6-6-6---8-8-8-8----5-5-5---10-10-10-10-
4.--6-6-6---8-8-8-8----5-5-5---10-10-10-10--
5.--4-4-4---6-6-6-6----3-3-3---8--8--8--8--
6.-----------------------------------------

quizas no te llamo, porque no me atrevo
1:56
1.------------------------------------------
2.------------------------------3-3/4/3-----
3.--6-6-6---8-8-8-8----5-5-5--5---------5-3-
4.--6-6-6---8-8-8-8----5-5-5----------------
5.--4-4-4---6-6-6-6----3-3-3----------------
6.------------------------------------------

Hace tiempo que ya no te veo...
2:01
1.-----------------------------------------
2.-----------------------------------------
3.--6-6-6---8-8-8-8----5-5-5---10-10-10-10-
4.--6-6-6---8-8-8-8----5-5-5---10-10-10-10-
5.--4-4-4---6-6-6-6----3-3-3---8--8--8--8--
6.-----------------------------------------

habremos cambiado...
2:05
1.----------------------------------
2.----------------------------------
3.--6-6-6---8-8-8-8----5-5---5-5-5--
4.--6-6-6---8-8-8-8----5-5---5-5-5--
5.--4-4-4---6-6-6-6----3-3---3-3-3--
6.----------------------------------

quizas, quizas, quizas a peor...
2:10      (Cegilla)
1.---------------------3---3--------------------------3-
2.---------4---------------------------4----4-3-------4-
3.--5-6-5----5--5-3------5---5--5-6-5----5------5-3---5-
4.--------3---------5-----------------3-------------5-3-
5.------------------------------------------------------
6.------------------------------------------------------

2:19
1.---------------------3---3--------------------------3-
2.---------4---------------------------4----4-3-------4-
3.--5-6-5----5--5-3------5---5--5-6-5----5------5-3---5-
4.--------3---------5-----------------3-------------5-3-
5.------------------------------------------------------
6.------------------------------------------------------

Hace tiempo que ya no te veo
2:28
1.-----------------------------------------
2.-----------------------------------------
3.--6-6-6---8-8-8-8----5-5-5---10-10-10-10-
4.--6-6-6---8-8-8-8----5-5-5---10-10-10-10-
5.--4-4-4---6-6-6-6----3-3-3---8--8--8--8--
6.-----------------------------------------

Quizas no te llamo...
2:32
1.------------------------------------------
2.------------------------------3-3/4/3-----
3.--6-6-6---8-8-8-8----5-5-5--5---------5-3-
4.--6-6-6---8-8-8-8----5-5-5----------------
5.--4-4-4---6-6-6-6----3-3-3----------------
6.------------------------------------------

Hace tiempo que ya no te veo
2:36
1.-----------------------------------------
2.-----------------------------------------
3.--6-6-6---8-8-8-8----5-5-5---10-10-10-10-
4.--6-6-6---8-8-8-8----5-5-5---10-10-10-10-
5.--4-4-4---6-6-6-6----3-3-3---8--8--8--8--
6.-----------------------------------------

habremos cambiado...
2:41
1.---------------------------
2.---------------------------
3.--6-6-6---8-8-8-8----5-5---
4.--6-6-6---8-8-8-8----5-5---
5.--4-4-4---6-6-6-6----3-3---
6.---------------------------

(SOLO)


2:45
1.--13--13-13-13--13-13-------16--16-16-16-------------16-----16-----
2.--13--13-13-13--13-13-13/14-----14-15-15(16)(15)(16)-15(16)-15(16)-
3.-------------------------------------------------------------------
4.-------------------------------------------------------------------
5.-------------------------------------------------------------------
6.-------------------------------------------------------------------

                                        (En esta parte tienen que desli-
                                        -zar la plumilla por encima de
                                        las cuerdas, desde las pastillas
                                        de la guitarra hasta el traste 7
2:54                                    aprox)
1.--13----13---13-13-------16-16----------------------------------------
2.--13----13---13-13-13/14----15(16)------------------------------------
3.----------------------------------------xxxxxxxxxxxxxxxxxxxxxxx-------
4.----------------------------------------xxxxxxxxxxxxxxxxxxxxxxx-------
5.----------------------------------------xxxxxxxxxxxxxxxxxxxxxxx-------
6.----------------------------------------------------------------------

3:03
1.------------------------------------------------------------
2.----------------------------9--9-9--------------------------
3.--10--------10-10-10-----------------6-6(8)(6)(8)-6(8)-6(8)-
4.--10--------10-10-10--10/12---------------------------------
5.--8---------8--8--8-----------------------------------------
6.------------------------------------------------------------

3:12
1.------------------------------------------------------------
2.----------------------------9--9-9--------------------------
3.--10--------10-10-10-----------------6-6(8)(6)(8)-6(8)-6(8)-
4.--10--------10-10-10--10/12---------------------------------
5.--8---------8--8--8-----------------------------------------
6.------------------------------------------------------------

3:21
1.-----------------------------------
2.-----------------------------------
3.--3-3(4)(3)(4)--3(4)-3(4)-3(4)(3)--
4.-----------------------------------
5.-----------------------------------
6.-----------------------------------

3:24
1.--------------------------------------------
2.--------------------------------------------
3.--1-3-4/3-1-3--1-3-3/1---1-----1-3-4---1----
4.-----------------------3-----3-------3---3--
5.--------------------------------------------
6.--------------------------------------------

3:28   (Todavia tengo mis dudas sobre esta parte pero hay les va)
1.-----------------------------------------------------------
2.-----------------------------------------------------------
3.--1-------------------3/1---1-3-3/1--3/5--3-3(5)-3-3(5)(3)-
4.----3-1---1-------1-3-----3---------3----------------------
5.--------3---3-1-3------------------------------------------
6.-----------------------------------------------------------

3:33
1.----------------------------------------------------------------------
2.-----------------------------------------------------------9-11-12/11-
3.------10-8----8---------------------------------------8-10------------
4.-3/10------10---10-8----8------------------------8-10-----------------
5.---------------------11---11-8----8---------8-11----------------------
6.-------------------------------11---11-8-11---------------------------


1.-------------------------------
2.----9----9---------------------
3.-10---10---10-8----8-----------
4.----------------10---10-8------
5.--------------------------11-8-
6.-------------------------------

3:39
1.--13----13---13-13--------16----16-------------16-----16-----
2.--13----13---13-13--13/14-------15(16)(15)(16)-15(16)-15(16)-
3.-------------------------------------------------------------
4.-------------------------------------------------------------
5.-------------------------------------------------------------
6.-------------------------------------------------------------

3:48
1.------------------------------
2.----------------------------9-
3.--10--------10-10-10----------
4.--10--------10-10-10--10/12---
5.--8---------8--8--8-----------
6.------------------------------

       (esta parte es mas parecida a la de la verción
3:54    de estudio, pero no cambia mucho)
1.---------13-11----11----------------------------------
2.--12(14)-------13----13--12/13/12---------------------
3.----------------------------------13-15(17)-13-15(17)-
4.------------------------------------------------------
5.------------------------------------------------------
6.------------------------------------------------------


1.---------------------------
2.---------------------------
3.---------------------------
4.--15-13-15-13--------------
5.--------------15-15-13-15--
6.---------------------------

          (En esta parte se vuelve a tocar el mismo traste varias
3:57       veces mas y muy rapido)
1.----------------------------------------------------------------
2.--------------------------------------------------------------9-
3.-----------------------------------------------------8---10-----
4.----------------------------------------6---8---10--------------
5.------------------------------6----8----------------------------
6.--1------4------6------8----------------------------------------

4:06
1.----------------------------------------------------------------------
2.--11-11(13)(11)(13)--11(13)--11(13)--11(13)(11)--11(13)(11)-----------
3.------------------------------------------------------------10-10-/-0-
4.---------------------------------------------------------------10-/-0-
5.---------------------------------------------------------------8------
6.----------------------------------------------------------------------

FIN DEL SOLO

Hace tiempo que ya no te veo...
4:19
1.-----------------------------------------
2.-----------------------------------------
3.--6-6-6---8-8-8-8----5-5-5---10-10-10-10-
4.--6-6-6---8-8-8-8----5-5-5---10-10-10-10-
5.--4-4-4---6-6-6-6----3-3-3---8--8--8--8--
6.-----------------------------------------


4:24
1.------------------------------------------
2.------------------------------3-3/4/3-----
3.--6-6-6---8-8-8-8----5-5-5--5---------5-3-
4.--6-6-6---8-8-8-8----5-5-5----------------
5.--4-4-4---6-6-6-6----3-3-3----------------
6.------------------------------------------

Hace tiempo que ya no te veo...
4:28
1.-----------------------------------------
2.-----------------------------------------
3.--6-6-6---8-8-8-8----5-5-5---10-10-10-10-
4.--6-6-6---8-8-8-8----5-5-5---10-10-10-10-
5.--4-4-4---6-6-6-6----3-3-3---8--8--8--8--
6.-----------------------------------------

Habremos cambiado...
4:32                                              3:54
1.------------------------------------------------------
2.------------------------------------------------------
3.--6-6-6---8-8-8-8----5----10--------------------10----
4.--6-6-6---8-8-8-8----5----10--------------------10----
5.--4-4-4---6-6-6-6----3----8---------------------8-----
6.------------------------------------------------------

5:07
1.-----------
2.-----------
3.--5--10-/0-
4.--5--10-/0-
5.--3--8-----
6.-----------

Les deceo suerte y recuerden que no hay nada que sea imposible
si se practica lo suficiente y esta canción merece la pena.

Saludos desde México.
Suggest correction
Creating personal tab
Creating personal tab
You can edit any tab online and save it as your Personal.

You can edit, replace or remove any tab part or add personal notes – all changes will be seen only by you.

Personal tabs can be accessed anytime from any device, even offline.
Learn more »
Give kudos to tab author, rate the tab!
1 2 3 4 5
comments
print report bad tab
guest
Wanna post a correction for this tab? Suggest correction