Oops, an error
Loading. Please wait.

Hace Tiempo tab

version 4
version 4

Whole song

Interactive

115 views 1 this week
no commentswrite comment
1 2 3 4 5
3 more votes to show rating
add to favorites
×
Save as Personal and add changes to this tab that will be seen only by you. Learn more ›
×
You can save this tab as Personal to edit and correct it or add notes. All changes will be seen only by you. Learn more »
launch autoscroll
font size
0
reset
how to read this tab
guitar tuner
edit
Autoscroll
slow
fast
+/-
esc
set tempo
stop
HACE TIEMPO

E-----------0--------------------4---4-------------0-----0--
B-2--3--2-----2-----2--0------2----0-----2--3--2-----2------
G---------2------2-------1-----------------------2-----2----
D--------------------------2----------------------------
A------------------------------------------------------
e------------------------------------------------------

E------------4------------------------------------4---4---
B--4--2--0---5---------------5----------0-----------4------
G----------1-6-----6--7--6------6-----6----6----6-----------
D------------6-------------7-------7---------7-------------
A------------------------------------------------------
e------------------------------------------------------

E------------0-----0-------------4---------0--------4-0------
B-2--3--2------2------4--2--0----5-------2---2----0-----0---
G----------2-----2-------------1-6-----2-------2-------------
D--------------------------------6---4-------------------
A------------------------------------------------------
e------------------------------------------------------

E-9--7--5-----------0--------------4-----------0---------
B-----------------2---2----4--0----5--------2-----2------
G---------------2-------2--------1-6-----2-----------2---
D----------7--4--------------------6--4--------------------
A------------------------------------------------------
e------------------------------------------------------

E---------4-------------------------0----------2--4--4------
B-4--0----5--------------0--------0---2--2--2------------------
G-------1-6--6--6--7--6--------------------------------------
D---------6----------------6---6--------------------------
A----------------------------7--------------------------
e------------------------------------------------------


E-2---------------------------0----------2--4--4-0--------------
B----2----2--3--2--0--------0---2--2--2------------2---2--3--2--
G-------1------------1----1--------------------------1-----
D-----------------------2-------------------------------
A------------------------------------------------------
e------------------------------------------------------


E-------------0------------2--4--4--2--------------
B----------0-----2--2--2---------------2-----2--3--
G-1-----1---------------------------------1-------
D----2---------------------------------------------
A-------------------------------------------------
e--------------------------------------------------


E-------------------0--------------0------------4--0-----7--
B-2--0-----------0-----4--------2-----2------0--------2-----7-
G-------1-----1--------------2-----------2-----------------
D----------2--------------4------------------------------
A------------------------------------------------------
e------------------------------------------------------


E----------0----------------4------------0-----------4--0---
B-------2-----2-----4--0----5---------2-----2-----0--------0-
G----2-----------2--------1-6------2-----------2-------------
D-4-------------------------6---4-------------------------
A------------------------------------------------------
e------------------------------------------------------


E-9--7--5--------------0-----------------4-----------0-------
B-------------------2-----2-----4--0-----5---------2----2-----
G----------------2-----------2--------1--6------2----------2-
D---------7---4--------------------------6---4-------------
A------------------------------------------------------
e------------------------------------------------------


E----4--0-----9--7--5---------------0----------------4-
B-0--------0---------------------2-----2-----4--0----5--
G-----------------------------2-----------2--------1-6--
D----------------------7---4-------------------------6--
A------------------------------------------------------
e------------------------------------------------------


E------------------------0---------2--4--4--2---------------
B-------------0--------0---2--2--2------------2---2--3--2--0--
G-6--6--7--6------------------------------------1------------1
D---------------6---6------------------------------------
A-----------------7-------------------------------------
e------------------------------------------------------


E-------0----------2---4--4--0-------------------------0-----
B-----0---2--2--2---------------2-----2--3--2--------0---2--2--2-
G---1------------------------------1-----------1---1-------
D-2----------------------------------------------2-------
A------------------------------------------------------
e------------------------------------------------------

E-2--4--4--2------------------------0--------------0----
B------------2---2--3--2--0-------0---4--2--3--2-----2----
G--------------1------------1---1----------------2-------2--
D-----------------------------2-------------------------
A------------------------------------------------------
e------------------------------------------------------


E----------------4-----4-------------0-------0-----------4--
B-2--0--------2-----0-----2--3--2------2-------4--2--0---5---
G-------1--------------------------2------2------------1-6--
D----------2---------------------------------------------6-
A------------------------------------------------------
e------------------------------------------------------


E-----------4------------------------0----------2--4--4-----
B-4--2--0---5--------------0-------0---2--2--2------------
G---------1-6--6--6--7--6------------------------------------
D-----------6----------------6---6------------------------
A------------------------------7------------------------
e------------------------------------------------------


E-2--------------------------------0-----------2--4--4--0----
B----2-----2--3--2--0-----------0-----2--2--2------------
G-------1--------------1-----1----------------------------
D-------------------------2-----------------------------
A------------------------------------------------------
e------------------------------------------------------


E----------------------------0-----------2--4--4--2---------
B-2-----2--3--2-----------0-----2--2--2--------------2----2--3-
G----1-----------1-----1--------------------------------1--
D-------------------2-----------------------------------
A------------------------------------------------------
e------------------------------------------------------


E----------------0----
B-2--0--------0-----4-
G------1---1----------
D--------2------------
A---------------------
e---------------------

SOLO
|----------------------|---------16~~~~~~~~~
|----------------------|--13/14-------------
|--10~~~~~~~~10--10--10|--------------------
|--10~~~~~~~~10--10--10|--------------------
|--8~~~~~~~~~8---8---8-|--------------------
|----------------------|--------------------

|----------------------|---------16~~~~~~~~~|
|----------------------|--13/14-------------|
|--10~~~~~~~~10--10--10|--------------------|
|--10~~~~~~~~10--10--10|---------------xxxxx|
|--8~~~~~~~~~8---8---8-|---------------xxxxx|
|----------------------|---------------xxxxx|

|-------|-------------------|---------------------
|-------|--------9~~~~------|---------------------
|-------|-------------7(9)~~|---------------------
|-10~~~~|-10/11-------------|-10~~~~~~~~10--10--10
|-8~~~~~|-------------------|-8~~~~~~~~~8---8---8-
|-8~~~~~|-------------------|-8~~~~~~~~~8---8---8-

|-------------------|
|--------9~~~~------|
|-------------7(9)~~|
|-10/11-------------|
|-------------------|
|-------------------|

|------------------------------
|------------------------------
|------------------------------
|--9/10~~~~9(10)9(10)-9/10-8---
|----------------------------11
|------------------------------

|----------------------------------
|----------------------------------
|----------------------------------
|-8-------------------------------8
|---11-10-11-10-8-10-8----8-10-11--
|----------------------11----------

|-----------------------------------
|-----------------------------------
|-----------------------------------
|---------------------8-8/108------
|-10/11~~~~8-10-10/11----------10/11
|-----------------------------------

|-------------------------------------|
|-------------------------------------|
|-------------------------------------|
|------------------------------8------|
|-10-8-10-8----8-10-11-8-10-11---10-11|
|-----------11------------------------|

|-------------------------------------
|-------------------------------------
|-------------------------10-8----8---
|-8/10~~~~9(10)9(10)-9/10------12---12
|-------------------------------------
|-------------------------------------

|------------------------------|
|------------------------------|
|------------------------------|
|-10-12-10-8-10-8----8---------|
|-----------------11---11-10-11|
|------------------------------|


|-------------------------------------
|-------------------------------------
|------------------------------8-10-12
|----------------------8-10-11--------
|-10-8-10-8----8-10-11----------------
|-----------11------------------------

|----------------------------------|
|-8/9------------------------------|
|-----12-10-12-10-8-10-8-7-8-7-----|
|------------------------------10-8|
|----------------------------------|
|----------------------------------|

|----------------------|---------16~~~~~~~~|
|----------------------|--13/14------------|
|--10~~~~~~~~10--10--10|-------------------|
|--10~~~~~~~~10--10--10|-------------------|
|--8~~~~~~~~~8---8---8-|-------------------|
|----------------------|-------------------|


|--------|----------------------------------
|--------|---------9~~----------------------
|--------|-----------------10-8----8--------
|--10~~~~|--10/11-----9/10------12---12-10-
|--8~~~~~|----------------------------------
|--8~~~~~|----------------------------------

|--------------------------|
|--------------------------|
|12-10-8-10-8----8---------|
|-------------11---11-10-11|
|--------------------------|
|--------------------------|

|-----------------------------------------
|-----------------------------------------
|-----------------------------------------
|-----------------------------------------
|-10-8-10-8-------------------------------
|-----------11-1-1-1-1-1-1-1-4-4-4-4-4-4-4

|----------------------------|
|----------------------------|
|----------------------------|
|----------------------------|
|-1-1-1-1-1-1-1-3-3-3-3-3-3-3|
|----------------------------|

|----------------------------------------------------
|----------------------------------------------------
|----------------------------------------------------
|-3--1/3--5--3/5--6--5/6--8--6/8--10--11--13--15--18-
|----------------------------------------------------
|----------------------------------------------------

|--------------------------------------|
|--------------------------------------|
|-15(17)~~~~~~~~--1715/17-------------|
|---------------------------1513/153-|
|--------------------------------------|
|--------------------------------------|

            
            
Suggest correction
Creating personal tab
Creating personal tab
You can edit any tab online and save it as your Personal.

You can edit, replace or remove any tab part or add personal notes – all changes will be seen only by you.

Personal tabs can be accessed anytime from any device, even offline.
Learn more »
Give kudos to tab author, rate the tab!
1 2 3 4 5
comments
print report bad tab
guest
Wanna post a correction for this tab? Suggest correction