Oops, an error
Loading. Please wait.

Hologramas tab

version 1
version 1

Whole song

94 views 3 this week
no commentswrite comment
1 2 3 4 5
3 more votes to show rating
add to favorites
×
Save as Personal and add changes to this tab that will be seen only by you. Learn more ›
×
You can save this tab as Personal to edit and correct it or add notes. All changes will be seen only by you. Learn more »
launch autoscroll
font size
0
reset
how to read this tab
guitar tuner
edit
Autoscroll
slow
fast
+/-
esc
set tempo
stop
Intro:


1/-------------------------------------------------------/
2/-------------------------------------------------------/
3/-------------------------------------------------------/
4/-------------------------------------------------------/
5/-----4-4-4-4-4-4-4-4-4-4-4-4---5-5-5-5-5-5-5-5-5-5-5-5-/
6/-------------------------------------------------------/
                                                                    X3
1/---------------------------------------------------------------/
2/---------------------------------------------------------------/
3/---------------------------------------------------------------/
4/----------------------------------------------------7-6-4------/
5/4-4-4-4-4-4-4-4-4-4-4-4--5-5-5-5-5-5-5-5-5-5-5-5----------7-4--/
6/---------------------------------------------------------------/

esto se repite casi toda la canción  óiganla ,
hay unas partes que he visto que no pusieron  que mas abajo pondre

puede ir unaguitarra rítmica con estos acordes solo acompañando el intro

         D               C#m
Imaginas cosas que nunca verás
          D               C#m    D  C#m  D  C#m
 a veces piensas que son reales.
              D            C#m
Imágenes que los demás no oirán
                D                C#m    D
porque son hologramas sin proyección.
 C#m    D
uh uh uh

(D  C#m)
(sigue el intro con el acompañamiento)
                   D               C#m
Ahora que tu mente me pertenece
     D               C#m    D  C#m  D  C#m
jamás podrás volver a huir
          D            C#m
ahora que seguro desapareces
          D                C#m    D
tu nombre volverá a mí.
Uh uh uh


1/------------0----0------------0-----0---/
2/-2----2-2------3----3---2-2-----3-----3-/
3/-0--------------------------------------/   X2
4/----------------------------------------/
5/----------------------------------------/
6/----------------------------------------/


1/---------------/
2/--9-7-9-1-1-1--/
3/---------------/   X4
4/---------------/
5/---------------/
6/---------------/


1/-------------------------/
2/-------------------------/
3/---6-7-9-7-6----6-7-9-7-6/  X2
4/-------------------------/
5/-------------------------/
6/-------------------------/


        D               C#m
Delante de tus ojos
   D               C#m    D  C#m  D  C#m
se estrellan mis enojos.
         D            C#m
Ahora que los pájaros vuelven a llorar
         D                C#m    D
podrás imaginar...

Uh uh uh

(C#m D) X 4    C#m

esta es mi segunda trascripción espero que la disfrutenla
pásensela chido

            
            
Suggest correction
Creating personal tab
Creating personal tab
You can edit any tab online and save it as your Personal.

You can edit, replace or remove any tab part or add personal notes – all changes will be seen only by you.

Personal tabs can be accessed anytime from any device, even offline.
Learn more »
Give kudos to tab author, rate the tab!
1 2 3 4 5
comments
print report bad tab
guest
Wanna post a correction for this tab? Suggest correction