Oops, an error
Loading. Please wait.

Hologramas tab

version 2
version 2

Whole song

64 views 1 this week
no commentswrite comment
1 2 3 4 5
3 more votes to show rating
add to favorites
×
Save as Personal and add changes to this tab that will be seen only by you. Learn more ›
×
You can save this tab as Personal to edit and correct it or add notes. All changes will be seen only by you. Learn more »
launch autoscroll
font size
0
reset
how to read this tab
guitar tuner
edit
Autoscroll
slow
fast
+/-
esc
set tempo
stop
que ondea chavos y chavas, rucos y rucas, nenes y nenas, mexicanas y mexicanos, 
en esta epoca de transicion les envio un saludote y espero que no dejen de mandar 
canciones bien armadas de los heroes, porque por ahi existen algunas que dejan 
mucho que desear, no se trata de enviar cochinadas OK.

intro (riff 1)
e------------------------------------------------------
b------------------------------------------------------
g------------------------------------------------------
d-----------------------------------6-5-3--------------
a-4-4-4-4-4-4-5-5-5-5-5-5-4-4-4-4-5-------7------------
E------------------------------------------------------
esta parte se toca tambien a lo largo de los versos. el 
acompañamiento lo podeis hacer con c#m y D.

primer solo (con distor)
e--4-4-4-4-4-5-5-5-5-5-4-4-4-4-4-5-5-5-5-5-------------
b--5-5-5-5-5-7-7-7-7-7-5-5-5-5-5-7-7-7-7-7-------------
g--6-6-6-6-6-7-7-7-7-7-6-6-6-6-6-7-7-7-7-7-------------
d------------------------------------------------------
a------------------------------------------------------
E------------------------------------------------------
segundo solo (chorus)
e------------------------------------------------------
b----9----------10-----------9-----------10------------
g------9-----------11----------9------------11---------
d-11-----11--12-------12--11-----11---12-------12------
a------------------------------------------------------
E------------------------------------------------------

ahora ponle algo de distorcion
e------------------------------------------------------
b-13-13-13--14-14-14--13-13-13-14-14-14----------------
g-12-12-12--13-13-13--12-12-12-13-13-13----------------
d------------------------------------------------------
a------------------------------------------------------
E------------------------------------------------------

bueno ahoar pondre dos opciones. la primera 
que corresponde a rarezas y la segunda que corresponde 
a una version que hay en el disco de Mexico 94

primera opcion (rarezas)

e------------------------------------------------------
b------------------------------------------------------
g-6-7-9-7-6-6-7-9-7-6-6-7-9-7-6-6-7-9-7-6--y se repite el intro
d------------------------------------------------------
a------------------------------------------------------
E------------------------------------------------------

opcion 2 (mexico 94)

e------------------------------------------------------
b-----------------7-5---------------------7-5----------
g-6-7-9-7-6---6-7-----7---6-7-9-7-6---6-7-----5--------
d------------------------------------------------------
a------------------------------------------------------
E------------------------------------------------------

e------------------------------------------------------
b-7-5--------7-5-------7-5-------7-5-------------------
g-----7-6-6------7-6-7-----7-6-6-----7-6-7-y se repite el intro
d------------------------------------------------------
a------------------------------------------------------
E------------------------------------------------------

Ok y al final se term ina con las quintas de estos tonos (c#m y D)

a continuacion les va la letra y el acomodo de la cancion.

hologramas

intro

Imaginas cosas que nunca veraz                 º
a veces piensas que son reales                 ºlos versos se acompañan con 
imagenes que los demas no veran                ºriff 1
porque son hologramas en proyeccion uh, uh ,uh º

primer solo

Ahora que tu mente me pertenece 
jamas podras volver a huir
para que si el mundo desaparece
tu nombre volvera a mi oh, oh, oh

segundo solo

delante de tus ojos 
se estrellan mis enojos
ahora que los pajaros 
vuelvan a llorar oh, oh, oh, ooooooooooohh

termina con quintas.


bueno eso es todo amigos solo recordarles que si he estado aqui 
transcribiendo esta cancion sin la guitarra y algunos errores de 
mas encima de este escritorio a sido exclusivamente para una gente que se lo
merece todo que son ustedes.

hace algun tiempo mande una tab de alicia expulsada a isla mujeres (PCA)
y no aparecio hasta ahora, a mi gusto es bastante buena pero la deben buscar 
en el indice como 401 (no se porque) o si octavio me hace el favor de corregir 
ese erro se lo agradecere mucho.

un agradecimiento a Omar Vidal. 

el_heroe2099@

            
            
Suggest correction
Creating personal tab
Creating personal tab
You can edit any tab online and save it as your Personal.

You can edit, replace or remove any tab part or add personal notes – all changes will be seen only by you.

Personal tabs can be accessed anytime from any device, even offline.
Learn more »
Give kudos to tab author, rate the tab!
1 2 3 4 5
comments
print report bad tab
guest
Wanna post a correction for this tab? Suggest correction