Oops, an error
Loading. Please wait.

Iberia Sumergida tab

version 1
version 1

Whole song

Interactive

239 views 1 this week
no commentswrite comment
1 2 3 4 5
3 more votes to show rating
add to favorites
×
Save as Personal and add changes to this tab that will be seen only by you. Learn more ›
×
You can save this tab as Personal to edit and correct it or add notes. All changes will be seen only by you. Learn more »
launch autoscroll
font size
0
reset
how to read this tab
guitar tuner
edit
Autoscroll
slow
fast
+/-
esc
set tempo
stop
INTRO A(con distorsionador)   
[------------]----------------------------------]
[------------]----------------------------------]
[------------]----------------------------------]
[-3/8~---8/--]-/5-5-5-5-/-3-3----8-8-8-8-/-3-3--]
[-3/8~---8/--]-/5-5-5-5-/-3-3----8-8-8-8-/-3-3--]
[-3/8~---8/--]-/5-5-5-5-/-3-3----8-8-8-8-/-3-3--]

[---------------------------------------------------]
[---------------------------------------------------]
[---------------------------------------------------]
[-/-5-5-5-5-/-3-3----------/-10-10-10-10----10-10-/-]
[-/-5-5-5-5-/-3-3----------/-10-10-10-10----10-10-/-]
[-/-5-5-5-5-/-3-3----------/-10-10-10-10----10-10-/-]

Repite INTRO A

INTRO B   
[---[-----------]    ]  !     [---------------------]
[---[-----------]    ]  !     [---------------------]
[---[-----------] x8 ]  !     [---3-2---------------]
[-0-[-0-0-0-0-0-]    ]  !     [-0-----1-0-0-0-0-0-0-]
[---[-----------]    ]  !     [---------------------]
[---[-----------]    ]  !     [---------------------]

[-----------------------]---------------------]
[-----------------------]---------------------]
[-----2-----------------]---3-2---------------]
[-0p1---(1)-0-0-0-0-0-0-]-0-----1-0-0-0-0-0-0-]
[-----------------------]---------------------]
[-----------------------]---------------------]
  
[-----------------------]-------------------]
[-----------------------]-3-1---------------]
[-----2-----------------]-----2-------------]
[-0p1---(1)-0-0-0-0-0-0-]-------0-0-0-0-0-0-]
[-----------------------]-------------------]
[-----------------------]-------------------]

[-----------------------]---------------------]
[-----------------------]---------------------]
[-----2-----------------]-0p1-0p1-0-----------]
[-0p1---(1)-0-0-0-0-0-0-]-----------0-0-0-0-0-]
[-----------------------]---------------------]
[-----------------------]---------------------]

[-----------------------]---------------------]
[-----------------------]---------------------]
[-----2-----------------]-0p1-0p1-0-----------]
[-0p1---(1)-0-0-0-0-0-0-]-----------0-0-0-0-0-]
[-----------------------]---------------------]
[-----------------------]---------------------]

[-----------------------]
[-----------------------]
[-----2-----------------]
[-0p1---(1)-0-0-0-0-0-0-]
[-----------------------]
[-----------------------]

RITMO
[---------------------]-----------]
[---------------------]-------1---]
[---2-0---------------]-----0-----]
[-------3-0-0-0-0-0-0-]-0-3-------]                   
[-0-------------------]-----------]
[---------------------]-----------]

[-------------------------------]
[---------1-----------------3---]
[---2-0-----0---------2---2---2-]
[-3-----3-----2---2p3---3-------]
[-------------------------------]
[-------------------------------]

[---------------------]-----------0---]
[---------------------]-------1---1---]
[---2-0---------------]-----0-----0---]
[-------3-0-0-0-0-0-0-]-0-3-----------]
[-0-------------------]---------------]
[---------------------]---------------]

[---------------------------------]---------]
[-------------1--------------3----]---------]
[---2-0-----0----------2---2---2--]---------]
[-3-----3-2--------2p3---3--------]---------]
[---------------------------------]-3-3-3-3-]
[---------------------------------]---------]

VERSO
 Amaneci...
[---------------]---------------------------------]
[---------------]---------------------------------]
[---------------]---------------5-5-3p0-----------]
[---------------]---3-5-5-5-X-3---------3--3--3-3-]
[-5-X-5-X-5-3-5-]-5-------------------------------]
[---------------]---------------------------------]

[---------------------------]
[---------------------------]
[---------------------------]
[---------------------------] (se repite VERSO)
[-3-3--3-3--5-X-5-X-5-3-5-X-]
[---------------------------]

CORO ***
 Te hicieron pan...

***tocando los acordes (checar acordes de la transcripcion anterior)


p = puente
X = tocar la cuerda apagada
()= los numeros en parentesis no se tocan, solo se
    presionan con el dedo para que suenen ligeramente.

            
            
Suggest correction
Creating personal tab
Creating personal tab
You can edit any tab online and save it as your Personal.

You can edit, replace or remove any tab part or add personal notes – all changes will be seen only by you.

Personal tabs can be accessed anytime from any device, even offline.
Learn more »
Give kudos to tab author, rate the tab!
1 2 3 4 5
comments
print report bad tab
guest
Wanna post a correction for this tab? Suggest correction