Oops, an error
Loading. Please wait.

Iberia Sumergida bass

version 2
version 2

Whole song

Interactive

180 views 1 this week
no commentswrite comment
1 2 3 4 5
3 more votes to show rating
add to favorites
×
Save as Personal and add changes to this tab that will be seen only by you. Learn more ›
×
You can save this tab as Personal to edit and correct it or add notes. All changes will be seen only by you. Learn more »
launch autoscroll
font size
0
reset
guitar tuner
edit
Autoscroll
slow
fast
+/-
esc
set tempo
stop
La tabaltura anterior no esta muy  bien, , incluso tome material de la anterior, Pero hay algunos
detalles que debemos considerar: hay omision de bastantes adornos de la rola orginal, 
pero si agrega adornos en donde no los hay. Tanto en la parte de 'Te hicieron pan...'
esta completamente mal, aparte el coro tambien. y el detalle mas sobresaliente radica
en que utiliza la afinacion normal, en esta rola debes de utilizar la siguiente afinacion

F||--------| (Si tienes un bajo de 5 cuerdas(o mas) trata de buscar los equivalentes 
C||--------| de los trastes que se manejan aqui)
G||--------| Debes de escuchar detalladamente la rola para que puedas tocarla con tu bajo
D||--------| bien, ya que no es una rola facil, asi que hay te va la cancion.

Introduccion 1(Figura 1 y 2) Cuando entra la armonica(Sigue el bombo de piso de la Batería y agrega
el adorno que se te pone en la Figura 2 cuando entra la guitarra solista o guitarra 1
a la introduccion 2)

F||------------------------------              |------------------------------|
C||------------------------------              |------------------------------|
G||--7--7-7--------7--7-7--------  Fig 1       |--7--7-7--------7-------------|Fig.2
D||----------7-10----------7-10--              |----------7-10------5-7--5-3-2|
                                                                     (Adorno)    
Introuccion 2(Figura 3) Cuando termina la armonica y entra la guitarra solista, osea, cuando
hay cambio de ritmo(sigue el cambio de ritmo  de la batería)

F----------------------------|----------------------------|
C----------------------------|----------------------------|             
G------------2------------2--|-------0--2-5-------0--2-5--|
D--0--0-2--3----0--0-2--3----|--3--3---------3--3---------|          

F------------------------------------|--------------------------|
C------------------------------------|--------------------------|
G---------9--10-12---------9--10-12--|--------------------------|
D--10--10-----------10--10-----------|--12------12--12------12/--                  

TODA ESTA ES LA FIGURA 3: REPITELA 2 VECES

VERSOS(Figura 4). Verso 1(Amanecí con los puños bien cerrados...) y tambien el 
verso 2( Formulas preguntas con semillas de respuesta...)

F------------------------------|------------------------------------|
C------------------------------|------------------------------------|
G--7--7-7--------7--7-7--------|--10--10-10---------10--10-10--9-7--|
D----------8-10----------8-10--|-------------12-10------------------|


                                                   
F---------------------|----------------------------|
C---------------------|----------------------------|
G---------------------|--7--7-7--7-7--7--7-7--7-7--|
D--10--------7--------|----------------------------|

ESTA FIGURA APLICALA EN LOS DOS VERSOS

LA PARTE DONDE DICE 'TE HICERON PAN Y AHI TE CONSIMIMOS...' Y LA PARTE DONDE DICE 
'AHORA QUE... PADECES DE INSOMIO...' APLICAS LA FIGURA 5 QUE ES LA SIGUIENTE

F---------------------------------|----------------------------|
C------------------------------7--|--9--9-9-9--7--9----12--12/-|
G--10--10-10-10--7--10--7--10-----|----------------------------|
D---------------------------------|----------------------------|


                                                              
F---------------------------|---------------------------------|
C--7--7-7-7-----7-----7-----|--10--10-10-10--7--12--12--10/---|
G------------7-----7-----7--|---------------------------------|
D---------------------------|---------------------------------|


                                                               
F---------------------------------|----------------------------|
C------------------------------7--|--9--9-9-9--7--9----12--12/-|
G--10--10-10-10--7--10--7--10-----|----------------------------|
D---------------------------------|----------------------------|

F---------------------------|-----------------------|
C--7--7-7-7-----7-----7-----|-----------------------|
G------------7-----7-----7--|--5------5--3------5-5-|
D---------------------------|-----------------------|
                                                                               

ESCUCHA MUY BIEN ESTAS PARTES, YA QUE  CONSIDERO QUE ES LA MAS DIFICIL DE LA ROLA
EN EL BAJO, SI TOKAS CON UÑA O PLUMILLA TE SERÁ MAS FACIL EFECTUAR LOS NUMEROS 
QUE ESTAN PEGADOS, ESTOS NUMEROS LOS DEBES DE TOKAR RAPIDO 

ESTA ES LA PARTE ANTES DEL CORO(figura 6 y 7), OSEA, DONDE ENTRA LA ARMONICA, NO OLVIDES APLICAR
EL ADORNO MARCADO EN LA FIGURA 7 ENTRE PARENTESIS COMO EL OTRO, ANTES DE ENTRAR 
A LA PARTE DE 'ESTE ES MI SITIO... Y ESTA ES MI...'

F--------------------------|                  
C--------------------------| FIGURA 6         
G--------------------------|
D--7--7--7--7--7--7--7--7--|

F--------------------------|
C--------------------------| FIGURA 7
G--------------------------|
D--7--7--7--7--7--5--3--2--|
                  (Adorno)

Este ya es el coro'ESTE ES MI SITIO Y ES Y ESTA ES MI ESPINA'(FIGURA 8, HAZLO DOS VECES)

F--------------------------|
C--------------------------|
G--------------------------|
D--0----0--0-0-7--0--7--0--|

F--------------------------|--------------------------|
C--------------------------|--------------7-----7-----|
G--------------9-----9-----|--5----5--5-5----5-----5--|
D--7----7--7-7----7-----7--|--------------------------|

F--------------------------|--------------------------|
C--------------------------|--------------------------|
G--------------7-----------|--------------------------|
D--5----5--5-5----5--3--2--|--0----0--0-0-7--0--7--0--|

F--------------------------|--------------------------|
C--------------------------|--------------------------|
D--------------9-----9-----|--------------4-----4-----|
G--7----7--7-7----7-----7--|--2----2--2-2----2-----2--|

F--------------------------|
C--------------------------|
G--------------7-----------|
D--5----5--5-5----5--3--2--|

DESPUES DE ESTO REPITES LA FIGURA6 Y 7 DONDE DE NUEVO ENTRA LA ARMONICA SOLO
HAY UN CAMBIO EN EL ADORNO Y TE LO MUESTRO:

----------------------------|
----------------------------|
----------------------------|
--7--7--7--7--7--5-7--5-3-2-|
                 (ADORNO)

EN SI  ES TODA ES LA CANCION, ESCUCHALA VARIAS VECES PARA QUE LE AGARRES LA ONDA A 
LAS FIGURAS, YA QUE ESTAS NO SON MUY FACILES, REQUIEREN DE MUCHO OIDO Y HABILIDAD 
EN EL BAJO PARA SACARLA. SIN DUDA ALGUNA YO USO ESTAS FIGURAS
Y SE ESCUCHAN MUY BIEN,PERO TAL VEZ MI EXPLICACION NO SEA MUY BUENA ASI QUE SI
TIENES ALGUNA DUDA O CORRECCION MANDAME UN MAIL 

saludos

            
            
Suggest correction
Creating personal tab
Creating personal tab
You can edit any tab online and save it as your Personal.

You can edit, replace or remove any tab part or add personal notes – all changes will be seen only by you.

Personal tabs can be accessed anytime from any device, even offline.
Learn more »
Give kudos to tab author, rate the tab!
1 2 3 4 5
comments
print report bad tab
guest
Wanna post a correction for this tab? Suggest correction