Oops, an error
Loading. Please wait.

Iberia Sumergida tab

version 2
version 2

Whole song

Interactive

174 views 1 this week
no commentswrite comment
1 2 3 4 5
3 more votes to show rating
add to favorites
×
Save as Personal and add changes to this tab that will be seen only by you. Learn more ›
×
You can save this tab as Personal to edit and correct it or add notes. All changes will be seen only by you. Learn more »
launch autoscroll
font size
0
reset
how to read this tab
guitar tuner
edit
Autoscroll
slow
fast
+/-
esc
set tempo
stop
Exelentisimo tema de los heroes, una de las mejores rolas de
su carrera. Bueno, sta cancion es algo asi cm la version del
Tour 07, pero ps = sirve para la version original y acustica,
solo q en el verso pueden hacer unas pequeñas variaciones,
bueno suerte!!! Arriba heroes!!!

e|--------------------------|-------------------------------|
B|--------------------------|-------------------------------|
G|--------------------------|-------------------------------|
D|--------------------------|-------------------------------|
A|-3/5-5-5-53--3/8-8-8-85-|-3/5-5-5-53--3/10-10-10-10-10-|
E|-3/5-5-5-53--3/8-8-8-85-|-3/5-5-5-53--3/10-10-10-10-10-|

e|---|-----------|
B|---|-----------|
G|---|-----------|
D|---|-----------| x11
A|-5-|-5-5-5-5-5-|
E|---|-----------|

e|-------------------|-------------------|-------------------|
B|-------------------|-------------------|-------------------|
G|-------------------|-------------------|-------------------|
D|---8-7-------------|-----7-------------|---8-7-------------|
A|-5-----6-5-5-5-5-5-|-6p5---6-5-5-5-5-5-|-5-----6-5-5-5-5-5-|
E|-------------------|-------------------|-------------------|

e|-------------------|-------------------|-------------------|
B|-------------------|-------------------|-------------------|
G|-------------------|---7-5-------------|-------------------|
D|-----7-------------|-------7-----------|-----7-------------|
A|-6p5---6-5-5-5-5-5-|-5-------5-5-5-5-5-|-6p5---6-5-5-5-5-5-|
E|-------------------|-------------------|-------------------|

e|---------------------|-------------------|---------------------|
B|---------------------|-------------------|---------------------|
G|---------------------|-------------------|---------------------|
D|-6p5-6p5-5-----------|-----7-------------|-6p5-6p5-5-----------|
A|-----------5-5-5-5-5-|-6p5---6-5-5-5-5-5-|-----------5-5-5-5-5-|
E|---------------------|-------------------|---------------------|

e|-------------------|
B|-------------------|
G|-------------------|
D|-----7-------------|
A|-6p5---6-5-5-5-5-5-|
E|-------------------|

e|-----------------------------|
B|---------------------------1-|
G|---2-0-------------------0---|
D|-------3-0-0-0-0-0-0-0-3-----|
A|-0---------------------------|
E|-----------------------------|

e|-------------------------------|
B|---------1-----------------3---|
G|---2-0-----0---------2---2---2-|
D|-3-----3-----2---2h3---3-------|
A|-------------------------------|
E|-------------------------------|

e|-----------------------------0-|
B|---------------------------1---|
G|---2-0-------------------0-----|
D|-------3-0-0-0-0-0-0-0-3-------|
A|-0-----------------------------|
E|-------------------------------|
e|------------------------------|---------|
B|-------------1-----------3----|---------|
G|---2-0-----0-------2---2---2--|---------|
D|-3-----3-2-----2h3---3--------|---------|
A|------------------------------|-3-3-3-3-|
E|------------------------------|---------|

Verso x4
e|-----------------|---------------------|
B|-----------------|---------------------|
G|-----------------|-------------5-5-2---|
D|-----------------|-3-5-5-3---3-------3-|
A|-5-5-5-3-5-3-5-3-|---------5-----------|
E|-----------------|---------------------|

e|-------------------|---------------------|
B|-------------------|---------------------|
G|-------------------|---------------------|
D|-----------------3-|---------------------|
A|-3-3-3-0---0-0-0---|-5-5-5-3-0-5-5-5-3-0-|
E|---------3---------|---------------------|

   F        Am    Gm          A#
Te hicieron pan y ahí te consumimos
e|-1~-------5~----3~----------6~---|
B|-1~-------5~----3~----------6~---|
G|-2~-------5~----3~----------7~---|
D|-3~-------7~----5~----------8~---|
A|-3~-------7~----5~----------8~---|
E|---------------------------------|

        F              Am          Gm         C
Y la venganza no es un trasto tan inútil
e|------1~-------------5~----------3~---------3~--|
B|------1~-------------5~----------3~---------5~--|
G|------2~-------------5~----------3~---------5~--|
D|------3~-------------7~----------5~---------5~--|
A|------3~-------------7~----------5~---------3~--|
E|------------------------------------------------|

e|---------|---------------------|-------------------|
B|---------|---------------------|-------------------|
G|---------|---------------------|-------------------|
D|-0-1-0---|---------------------|-------------------|
A|-------3-|-0-0-0-0-0-0-0-3-0---|-0-0-0-0-0-0-0-5-3-|
E|---------|-------------------3-|-------------------|

e|---------------------|---------------------|
B|---------------------|---------------------|
G|---------------------|-------------0-2-0---|
D|---------------------|-------------------3-|
A|-0-0-0-0-0-0-0-3-0---|-0-0-0-0-0-0---------|
E|-------------------3-|---------------------|

Coro x2
     Dm       Am        C        G
Este es mi sitio y esta es mi espina
e|---------------------------------------|
B|---------------------------------------|
G|--7-7-7-7------------5-5-5-5-----------|
D|--7-7-7-7--7-7-7-7---5-5-5-5---5-5-5-5-|
A|--5-5-5-5--7-7-7-7---3-3-3-3---5-5-5-5-|
E|-----------5-5-5-5-------------3-3-3-3-|

      Dm       Am          Em           G
Iberia sumergida en sus rumores clandestinos
e|---------------------------------------------|
B|---------------------------------------------|
G|---7-7-7-7--------------9-9-9-9--------------|
D|---7-7-7-7--7-7-7-7-----9-9-9-9------5-5-5-5-|
A|---5-5-5-5--7-7-7-7-----7-7-7-7------5-5-5-5-|
E|------------5-5-5-5------------------3-3-3-3-|

e|---------|---------------------|-------------------|
B|---------|---------------------|-------------------|
G|---------|---------------------|-------------------|
D|-0-1-0---|---------------------|-------------------|
A|-------3-|-0-0-0-0-0-0-0-3-0---|-0-0-0-0-0-0-0-3-5-|
E|---------|-------------------3-|-------------------|

e|---------------------|-------------|
B|---------------------|-------------|
G|---------------------|-------------|
D|---------------------|-------------|
A|-0-0-0-0-0-0-0-3-0---|-0-0-0-0-0-0-|
E|-------------------3-|-------------|

e|------------------------------|
B|----------------------------1-|
G|--0-2-0-------------------0---|
D|--------3-0-0-0-0-0-0-0-3-----|
A|-0----------------------------|
E|------------------------------|

e|-------------------------------|
B|---------1-----------------3---|
G|---2-0-----0---------2---2---2-|
D|-3-----3-----2---2h3---3-------|
A|-------------------------------|
E|-------------------------------|

e|-----------------------------0-|
B|---------------------------1---|
G|---2-0-------------------0-----|
D|-------3-0-0-0-0-0-0-0-3-------|
A|-0-----------------------------|
E|-------------------------------|

e|------------------------------|---------|
B|-------------1-----------3----|---------|
G|---2-0-----0-------2---2---2--|---------|
D|-3-----3-2-----2h3---3--------|---------|
A|------------------------------|-3-3-3-3-|
E|------------------------------|---------|

Verso x4
e|-----------------|---------------------|
B|-----------------|---------------------|
G|-----------------|-------------5-5-2---|
D|-----------------|-3-5-5-3---3-------3-|
A|-5-5-5-3-5-3-5-3-|---------5-----------|
E|-----------------|---------------------|

e|-------------------|---------------------|
B|-------------------|---------------------|
G|-------------------|---------------------|
D|-----------------3-|---------------------|
A|-3-3-3-0---0-0-0---|-5-5-5-3-0-5-5-5-3-0-|
E|---------3---------|---------------------|

   F        Am    Gm          A#
      Ahora que padeces de insomnio
e|-1~-------5~----3~----------6~--|
B|-1~-------5~----3~----------6~--|
G|-2~-------5~----3~----------7~--|
D|-3~-------7~----5~----------8~--|
A|-3~-------7~----5~----------8~--|
E|--------------------------------|

    F      Am         Gm      C
Quisieras morir de siesta
e|--1~-----5~---------3~------3~--|
B|--1~-----5~---------3~------5~--|
G|--2~-----5~---------3~------5~--|
D|--3~-----7~---------5~------5~--|
A|--3~-----7~---------5~------3~--|
E|--------------------------------|

e|---------|---------------------|-------------------|
B|---------|---------------------|-------------------|
G|---------|---------------------|-------------------|
D|-0-1-0---|---------------------|-------------------|
A|-------3-|-0-0-0-0-0-0-0-3-0---|-0-0-0-0-0-0-0-5-3-|
E|---------|-------------------3-|-------------------|

e|---------------------|---------------------|
B|---------------------|---------------------|
G|---------------------|-------------0-2-0---|
D|---------------------|-------------------3-|
A|-0-0-0-0-0-0-0-3-0---|-0-0-0-0-0-0---------|
E|-------------------3-|---------------------|

Coro x2
     Dm       Am        C        G
Este es mi sitio y esta es mi espina
      Dm       Am          Em           G
Iberia sumergida en sus rumores clandestinos

Outro
e|---------|---------------------|-------------------|
B|---------|---------------------|-------------------|
G|---------|---------------------|-------------------|
D|-0-1-0---|---------------------|-------------------|
A|-------3-|-0-0-0-0-0-0-0-3-0---|-0-0-0-0-0-0-0-3-5-|
E|---------|-------------------3-|-------------------|

e|---------------------|-------------|
B|---------------------|-------------|
G|---------------------|-------------|
D|---------------------|-------------|
A|-0-0-0-0-0-0-0-3-0---|-0-0-0-0-0-0-|
E|-------------------3-|-------------|

e|------------------------------|
B|----------------------------1-|
G|--0-2-0-------------------0---|
D|--------3-0-0-0-0-0-0-0-3-----|
A|-0----------------------------|
E|------------------------------|

e|-------------------------------|
B|---------1-----------------3---|
G|---2-0-----0---------2---2---2-|
D|-3-----3-----2---2h3---3-------|
A|-------------------------------|
E|-------------------------------|

e|-----------------------------0-|
B|---------------------------1---|
G|---2-0-------------------0-----|
D|-------3-0-0-0-0-0-0-0-3-------|
A|-0-----------------------------|
E|-------------------------------|

e|--------------------------|
B|-------------1------------|
G|---2-0-----0-------2---7~-|
D|-3-----3-2-----2h3---3-7~-|
A|-----------------------5~-|
E|--------------------------|

            
            
Suggest correction
Creating personal tab
Creating personal tab
You can edit any tab online and save it as your Personal.

You can edit, replace or remove any tab part or add personal notes – all changes will be seen only by you.

Personal tabs can be accessed anytime from any device, even offline.
Learn more »
Give kudos to tab author, rate the tab!
1 2 3 4 5
comments
print report bad tab
guest
Wanna post a correction for this tab? Suggest correction