Oops, an error
Loading. Please wait.

La Apariencia No Es Sincera tab

version 1
version 1

Whole song

Interactive

115 views 1 this week
no commentswrite comment
1 2 3 4 5
3 more votes to show rating
add to favorites
×
Save as Personal and add changes to this tab that will be seen only by you. Learn more ›
×
You can save this tab as Personal to edit and correct it or add notes. All changes will be seen only by you. Learn more »
launch autoscroll
font size
0
reset
how to read this tab
guitar tuner
edit
Autoscroll
slow
fast
+/-
esc
set tempo
stop
Intro  tono limpio y phaser (gtr 1)
------------------------------------------------------
------------------------------------------------------
-----0----------0-------------0----------0-0----------
----2---2-2----2---2-2-------2---2-2--------2-2-------
---2-----2----2-----2-------2-----2-----2-2--2--------
--0----------3------------2------------0--------------


 Em         Em/G         Em/F#        Em
------------------------------------------------------
------0------------------------------------------------
----------------0-------------0----------0-0----------
----2---2-2----2---2-2-------2---2-2--------2-2-------
---2-----2----2-----2-------2-----2-----2-2--2--------
--0----------3------------2------------0--------------
Acorralado entre tu futuro y mi pared_________


----------------------------------------------------|
------0---------0-------------0---------------------|
---------------------------------------0-------/----|
----2---2-2----2---2-2-------2---2-2---2-------/----|
---2-----2----2-----2-------2-----2----2-------/----|
--0----------3------------2------------0-------/----|
Cuestionando cada una de las frases____             |
---------------------------------------7---------7/-|
---------------------------------------8---------8/-|
---------------------------------------9---------9/-|
---------------------------------------9---------9/-|
---------------------------------------7---------7/-|
----------------------------------------------------|


Con dist y palm mute (gtr 2)
p.m.....   .......       ..  ..
------------------------------------------------------
------------------------------------------------------
-----0----------0-------------0----------0-0----------
----2---2-2----2---2-2-------2---2-2--------2-2-------
---2-----2----2-----2-------2-----2-----2-2--2--------
--0----------3------------2------------0--------------
Sabes nunca estuviste en la cancion

.....      ....           ..
------------------------------------------------------
-----------------0------------------------------------
-----0------------------------0--------0--------------
----2---2-2----2---2-2-------2---2-2---2--------------
---2-----2----2-----2-------2-----2----2--------------
--0----------3------------2------------0--------x///// pick scrape
Pero tan dulcemente te entregaste y te oigo decir


p.m..      .....  
---------------------------------------------
-------------------------------5---5----5----
-----2---------4----------4----6---6----6----
----4--4-4----5---5-5----5-5-5-7xxx7x-x-7----
---4----4----5-----5----5---5--7xxx7x-x-7----
--2---------3----------3-------5xxx5x-x-5----
1 Dame tantas rosas como espinas me clavé
2 Dame tantas rosas como espinas me clavé

......     ..... 
---------------------------------------------
---------------------------------------------
-----2---------4----------4------------------
----4--4-4----5---5-5----5-5-5-7xxx7x-x-7----
---4----4----5-----5----5---5--7xxx7x-x-7----
--2---------3----------3-------5xxx5x-x-5----
1 no encajo bien tus bromas ¿por que seras tan cruel?
2 tan facilmente explotas que infierno te posee?


Extrayendo poco a poco todo de mis venas    gtr 1 solamente
tus agujas pellizcan suave la piel     
sabes, nunca hubo una droga peor
pero esta vez tampoco te escuche

Creo que aqui ya saben que va no?  solo terminen con esta figura:
---------------------------------------7--7-7-7-7----7--
-----------------0---------------------8--8-8-8-8----8--
-----0------------------------0--------9--9-9-9-9----9--
----2---2-2----2---2-2-------2---2-2---9--9-9-9-9----9--
---2-----2----2-----2-------2-----2----7--7-7-7-7----7--
--0----------3------------2----------------------------- 
              mas de uno grito_____      gtr 2^


gtr 2
pm.m...   ..... 
---------------------------------------------
-------------------------------5---5----5----
-----2---------4----------4----6---6----6----
----4--4-4----5---5-5----5-5-5-7xxx7x-x-7----
---4----4----5-----5----5---5--7xxx7x-x-7----
--2---------3----------3-------5xxx5x-x-5----
Dame tantas rosas como espinas me clave
......     .....
---------------------------------------------
---------------------------------------------
-----2---------4----------4------------------
----4--4-4----5---5-5----5-5-5-7xxx7x-x-7----
---4----4----5-----5----5---5--7xxx7x-x-7----
--2---------3----------3-------5xxx5x-x-5----
Tan facilmente explotas que infierno te posee?
......   ......
----------------------------------------------
----------------------------------------------
-----2---------4----------4-------------------
----4--4-4----5---5-5----5-5-5--7h9p7/6h7/5---
---4----4----5-----5----5---5--------------5h7
--2---------3----------3----------------------
Hoy dame tantas rosas como espinas me clave
.....      .....
---------------------------------------------
---------------------------------------------
-----2---------4----------4------------------
----4--4-4----5---5-5----5-5-5-7-------------
---4----4----5-----5----5---5--7-------------
--2---------3----------3-------5-------------
No encajo bien tus bromas por que seras tan cruel?


Bm                 A
Podrias pensar lo peor
          Em                     Bm
que la apariencia no es sincera, no
                       Em 
pasabas las noches en vela
             G                 Bm
será una condena de amargo sabor.
gtr 1
---7---7--7-7-7-7-7-----5-----------7-----------7-------
---7---7--7-7-7-7-7-----5-----------8-----------7-------
---7---7--7-7-7-7-7-----6-----------9-----------7-------
---9---9--9-9-9-9-9-----7---%-------9-----%-----9---%---
---9---9--9-9-9-9-9-----7-----------7-----------9-------
---7---7----------------5-----------------------7-------
 

-7------7--------10---------7-----------
-7------8--------12---------7-----------
-7------9--------12---------7-----------
-9-%----9--%-----12--%------9--%--------
-9------7--------10---------9-----------
-7--------------------------7-----------


 
                    D           
Podria perder el control
        A                  G      Bm
con apariencia embustera, o no
                       F#m      
pasabas las noches de espera 
            A            G    
merezco que arda el corazón

Gtr 1
-7---------5--------------5-----------------------10----------/-----|
-7---------7--------------5-----------------------12----------/-----|
-7---------7--------------6-----------------------12----------/-----|
-9-%-------7---%----------7----%------------------12----------/-----|
-9------------------------------------------------10----------/-----|
-7------------------------------------------------------------------|
                                                                    |
Gtr 2                                                               |
--------------------------------------------------10--10-10-10------|
--------------------------------------------------12--13-12-13------|
------------7------7-7-7-7------------------------12--12-12-12------|
---9-----9--7------7-7-7-7-7------------7-7-7-----12--12-12-12------|
-x/9-----9--5------5-5-5-5-7------------7-7-7-----10--10-10-10------|
---7-----7-----------------5------------5-5-5-----------------------|
^este es un pick scrape                           ^^aqui obviamente 
                                                lleva mas rasgueos
                                                pero por cuestiones de espacio
                                                no los pongo
gtr 1
-7----9-------------------------5---------------10------------------|
-7----10------------------------5---------------12------------------|
-7----11------------------------6---------------12------------------|
-9-%--11--%---------------------7----%----------12------------------|
-9----------------------------------------------10------------------|
-7------------------------------------------------------------------|
     ^^Aqui lleva mas espacio para hacer                            |
       el cambio                                                    |
                                                                    |
-------------------------------------------------10-10-10-10-----10-|
------10-9-10-9-10-9--10-9-----------------------12-13-12-12-----12-|
----------11---11---11----11---------------------12-12-12-12-----12-|
-9--------------------------------7--------7-7-7-12-12-12-12-----12-|
-9--------------------------------7--------7-7-7-10-10-10-10-----10-|
-7--------------------------------5--------5-5-5--------------------|
     ^aqui el cambio lleva                       ^^aqui tambien lleva mas
       mas hammers y pulls off                     rasgueos

NOTA: Los acordes que estan en parentesis los proporciona el bajo. 
El + signifiga graves  y o significa agudos. Solo para el wha de la guitarra
en casi toda lleva el wah cerrado solo abran cundo se indique
Con Wah
  (D)            (A)         (B) sl/ (G)  (A)      (D)       (A)          (B)
-----------------------------7---------------------5----------------------------
--7----7-----10-8-7--7-------7-------7h8p7-7h8p7---7-7h8p7-10-7--7h8p7-7--------
---7vib-9p7---------9-9------7-7--7h9-----9-----9--7------9-----------9---------
-----------------------7h9---9--9------------------7--------------------9-9-----
-----------------------------9---------------------5----------------------9-----
-----------------------------7--------------------------------------------7-----
  +                          o                     o                      o

(G)     (A)                      (D)         (A)               (B)
-10^-7-7-10^--7-7-10^--7-7-10^-7-7-10^-7----------------9^7-5h7-7vib--
-----------------------------------------10--7h8p7-10-7---------------
----------------------------------------------------------------------
----------------------------------------------------------------------
----------------------------------------------------------------------
----------------------------------------------------------------------
^^tremolo picking^^^^^^^^^^^^^^^^^^^^^^ 
(solo en el traste siete)

(G)       (A)                  (D)                 (A)
--------------------------------5-------------------5--
-7h8p7--------------------------7-------------------5--
------9-9h11p9-7-7h9p7-6-6h7p6--7--7-7-7-6-4-6-7-6--6--
--------------------------------7--7-7-7-6-4-6-7-6--7--
--------------------------------5-------------------7--
----------------------------------------------------5--
                                o                 +o+o+o+o


Acobardado, ahora callo en alto antes de huir
no resulta sencillo ser fiel a la conciencia
ahora ya sabes nunca pesadilla me intimido
si yo no escogí, quién fue el que decidio
más de uno grito.


gtr 2
---------------------------------------------
-------------------------------5---5----5----
-----2---------4----------4----6---6----6----
----4--4-4----5---5-5----5-5-5-7xxx7x-x-7----
---4----4----5-----5----5---5--7xxx7x-x-7----
--2---------3----------3-------5xxx5x-x-5----
1 Dame tantas rosas como espinas me clavé
2 Dame tantas rosas como espinas me clavé


---------------------------------------------
---------------------------------------------
-----2---------4----------4------------------
----4--4-4----5---5-5----5-5-5-7xxx7x-x-7----
---4----4----5-----5----5---5--7xxx7x-x-7----
--2---------3----------3-------5xxx5x-x-5----
1 no encajo bien tus bromas ¿por que seras tan cruel?
2 tan facilmente explotas que infierno te posee?


Bm                 A
Podrias pensar lo peor
          Em                     Bm
que la apariencia no es sincera, no
                       Em 
pasabas las noches en vela
             G                 Bm
será una condena de amargo sabor.

---7---7--7-7-7-7-7-----5-----------7-----------7-------
---7---7--7-7-7-7-7-----5-----------8-----------7-------
---7---7--7-7-7-7-7-----6-----------9-----------7-------
---9---9--9-9-9-9-9-----7---%-------9-----%-----9---%---
---9---9--9-9-9-9-9-----7-----------7-----------9-------
---7---7----------------5-----------------------7-------
 
         
-7------7--------10---------7-----------
-7------8--------12---------7-----------
-7------9--------12---------7-----------
-9-%----9--%-----12--%------9--%--------
-9------7--------10---------9-----------
-7--------------------------7-----------
                      ^(A)
                     aqui pueden utilizar La para hacer
                     el cambio (aunque no lo lleva) pero no se escucha mal
                    D           
Podria perder el control
        A                  G      Bm
con apariencia embustera, o no
                       F#m      
pasabas las noches de espera 
            A            G    
merezco que arda el corazón

Gtr 1
-7---------5--------------5-----------------------10----------/-----|
-7---------7--------------5-----------------------12----------/-----|
-7---------7--------------6-----------------------12----------/-----|
-9-%-------7---%----------7----%------------------12----------/-----|
-9------------------------------------------------10----------/-----|
-7------------------------------------------------------------------|
                                                                    |
Gtr 2                                                               |
--------------------------------------------------10--10-10-10------|
--------------------------------------------------12--13-12-13------|
------------7------------7------------------------12--12-12-12------|
-9-9-----9--7------------7-7----------------7-----12--12-12-12------|
-9-9-----9--5------------5-7----------------7-----10--10-10-10------|
-7-7-----7-----------------5----------------5-----------------------|
^^ antes de cambiar de acorde hagan un un p.m. apagado y luego vuelvan a
   rasguear normal (solo este coro)

-7----9-------------------------5---------------10------------------|
-7----10------------------------5---------------12------------------|
-7----11------------------------6---------------12------------------|
-9-%--11--%---------------------7----%----------12------------------|
-9----------------------------------------------10------------------|
-7------------------------------------------------------------------|
                                                                    |
                            * este cambio es mas largo              |
----------------------------^--------------------10-10-10-10-----10-|
------10-9--10-9--10-9--10p9h10p9----------------12-13-12-12-----12-|
----------11----11----11---------11--------------12-12-12-12-----12-|
-9----------------------------------7------7-7-7-12-12-12-12-----12-|
-9----------------------------------7------7-7-7-10-10-10-10-----10-|
-7----------------------------------5------5-5-5--------------------|


este verso termina asi:
Gtr 2
--------------
--------------
--------------
---12slide----
--------------
--------------


Los acordes sin parentesis van hechos por otroa guitarra con distorcion (fig a)
Simbolos del wah igual que el anterior verso
con wha
 (D)            (A)         (B) sl/ (G)  (A)      (D)       (A)          (B)
---------------------------------------------------5----------------------------
--7----7-----10-8-7--7---------------7h8p7-7h8p7---7-7h8p7-10-7--7h8p7-7--------
---7vib-9-p7--------9-9--------7--7h9-----9-----9--7------9-----------9---------
-----------------------7h9---9--9------------------7--------------------9-9-----
-----------------------------9---------------------5----------------------9-----
-----------------------------7--------------------------------------------7-----

(G)     (A)                       D          A                  B
-10^-7-7-10^--7-7-10^--7-7-10^-7-7-10^-7----------------9^7-5h7-7vib--
-----------------------------------------10--7h8p7-10-7---------------
----------------------------------------------------------------------
----------------------------------------------------------------------
----------------------------------------------------------------------
----------------------------------------------------------------------

G         A           D           A               A    B
--12^---12^---12^-----7---------------------------5----7--
-7h8p7---------------------10---------------------5----7--
----------------------------------7-7-7-6-4-6-7-6-6----7--
----------------------------------7-7-7-6-4-6-7-6-7----9--
--------------------------------------------------7----9--
--------------------------------------------------5----7--


fig A

------------------------------------------------
-7----------------------------------------------
-7----6-----4--/--12--/---6-----7---6---6-------
-7----7-----4--/--12--/---7-----7---7---7----9--
-5----7-----2-sl--10--/---7-----5---7---7----9--
------5-------------------5---------5---5----7--


NOTAS:
      ANTES QUE NADA UNA DISCULPA PORQUE LAS TABS NO SON DE LA
CALIDAD QUE QUISIERA PERO ES MUY DIFICIL HACERLOS EN LA COMPUTADORA

Ahora no se guien por los compases, NO son exactos son solo para referencia
faltan como siempre los vibratos que no puse por falta de espacio, 
creo yo que ustedes pueden ponerlos, y si tienen dudas escribanme,
tambien consideré innecesario poner que figuras eran ya que luego luego se ve 
a que corresponde cada figura (verso, coro, etc.) 
los acordes parecen correctos solo falta echarle el feeling de cada uno
pongan slides, vibratos y bends segun lo que consideren
los versos llevan demasiadas variaciones que considere de mas
solo puse las que mas se escuchaban pero en realidad no afectan 
la interpretacion de la canción
Es importante usar wah con pedal de expresion, no se escucha igual con auto-wah
pero eso lo dejo a su criterio
De todas maneras si tienen cualquier duda, comentario o lo que sea
escribanme
Por cierto todo fue en standar tuning

Mirsha

            
            
Suggest correction
Creating personal tab
Creating personal tab
You can edit any tab online and save it as your Personal.

You can edit, replace or remove any tab part or add personal notes – all changes will be seen only by you.

Personal tabs can be accessed anytime from any device, even offline.
Learn more »
Give kudos to tab author, rate the tab!
1 2 3 4 5
comments
print report bad tab
guest
Wanna post a correction for this tab? Suggest correction