Oops, an error
Loading. Please wait.

La Espuma De Venus tab

version 2
version 2

Whole song

Interactive

142 views 6 this week
no commentswrite comment
1 2 3 4 5
3 more votes to show rating
add to favorites
×
Save as Personal and add changes to this tab that will be seen only by you. Learn more ›
×
You can save this tab as Personal to edit and correct it or add notes. All changes will be seen only by you. Learn more »
launch autoscroll
font size
0
reset
how to read this tab
guitar tuner
backing track
0:00
0:00
edit
Autoscroll
slow
fast
+/-
esc
set tempo
stop
esta es una 'correccion' que es casi una nueva tablatura, la
otra esta muy incompleta ademas aqui incluyo el solo de intro


    Am               F             Em
e|-----------------------------------------------------------|
B|-------1----1---------1----1---------0------------0--------|
G|----------4---2----------4---2------------0------------0---|
D|----------------2--------------3---------------------------|
A|---0-------------------------------------------------------|
E|-------------------1--------------0-----------0------------|

    Am               F             Em
e|-------------------------------------------0---------------|
B|-------1----1---------1----1---------0------------0--------|
G|----------4---2----------4---2-------------------------0---|
D|----------------2--------------3---------------------------|
A|---0-------------------------------------------------------|
E|-------------------1--------------0-----------0------------|


    Am               F             Em
e|-----------------------------------------------------------|
B|-------1----1---------1----1---------0------------0--------|
G|----------4---2----------4---2------------0------------0---|
D|----------------2--------------3---------------------------|
A|---0-------------------------------------------------------|
E|-------------------1--------------0-----------0------------|


    Dm                   F                G
e|------------------------------------------------3-------3--|     
B|----------6--------------6--5h6---------------0------------|    
G|------7-----7---------7-----------7p5-------0-------0------|           
D|--------------7--------------------------0--------0--------|  
A|--5----------------5---------------------------------------|   
E|-----------------------------------------------------------|

    
      SOLO INTRO (necesitas pedal)

e|----------------------------------------------------------|
B|----------------------------------------------------------|
G|--17p14h17p16p14-9-----------------------------9----------|
D|-----------------7---7--10/12-12(13)12-12p10-12--10-7~----|
A|---------------------0--10/12-12--------------------------|
E|----------------------------------------------------------|

                               (tremolo)
e|-------------17-17/19(20~)---------------------------------|
B|--------15/17---------------------------11p10p8------------|
G|---14------------------------15/14/15-----------9~---15/17-|
D|---12------------------------15/14/15----------------15/17-|
A|-----------------------------------------------------------|
E|-----------------------------------------------------------

e|19(20)19-17----------------------------------------------------|
B|---------------------------------------------------------------|
G|-----------17-----------7-10-12-12(13)10-----------------------|
D|--------------14/12-----7-10-12-12----10---5h7----5h7----------|
A|--------------14712-12-------------------7-5h7--7-5h7--/7-5-3-0|
E|--------------------12-------------------7------7--------------

e|-----------------------------------------------------------|
B|-----------------------------------------------------------|
G|-----------------------------------------------------------| 
D|--10/12-12-10h12p10----------------------------------------|
A|--10712-12----------12-10-14(15)14-14p12-14-14(15)14~~-----|
E|-----------------------10-12-------------12-12-------------


    Am               F             Em
e|-----------------------------------------------------------|
B|-------1----1---------1----1---------0------------0--------|
G|----------4---2----------4---2------------0------------0---|
D|----------------2--------------3---------------------------|
A|---0-------------------------------------------------------|
E|-------------------1--------------0-----------0------------|


    Am               F             Em
e|-----------------------------------------------------------|
B|-------1----1---------1----1---------0------------0--------|
G|----------4---2----------4---2------------0------------0---|
D|----------------2--------------3---------------------------|
A|---0-------------------------------------------------------|
E|-------------------1--------------0-----------0------------|


    Am               F             Em
e|-------------------------------------------0----------------|
B|-------1----1---------1-----1----------0-----------0--------|
G|----------4---2----------4----2------------------------0----|
D|----------------2---------------3---------------------------|
A|---0--------------------------------------------------------|
E|-------------------1---------------0-----------0------------|


    Dm                       F                      Am
e|---------------------------------------------------------3---|
B|-----------6---5h6------------------6p5h6-------------0------|
G|--------7-------------7----------7----------7------0---------|
D|----7-----------------------7------------------7-------------|
A|-5-----------------------------------------------------------|
E|-------------------------------------------------------------|


  verso a...en frio a flor de labio....
     

   Am               F               Em
e|------------------------------------------------------------------|
B|-----1----1 ----------1----1----------1----1-----------1----1-----|
G|--------4---2------------4---2-----------4---2------------4---2---|
D|--------------2----------------3---------------2----------------2-|
A|-0---------------------------------0----------------0-------------|
E|------------------1-----------------------------------------------|


   Am            Em                 G                 F
e|--------------------------------------------------------------------
B|----1----1---------0----0------------3-----3-----------3-----3------
G|-------4---2----------0----0------------4-----4----------4-----4----
D|-------------2----------------0------------------5----------------5-
A|-0------------------------------------------------------------------
E|----------------0-----------------3-----------------1---------------

    Em              Am
  ------------------------------------|
  ------3-----3----------1-----1------|
  ---------4----4-----------4----2----|
  ----------------5----------------2--|
  -------------------0----------------|
  --0---------------------------------|


   ... naaaadé desnudo tu oleaje...   

   Am                G                    F
e|--------------------------------------------0---------------------
B|-----1----1-----------3-----3------------0-----------------6-5----
G|--------4---2------------4-----4-----------------------7-------7--
D|--------------2------------------5------------------7------------7
A|-0------------------------------------------------5---------------
E|-------------------3-----------------0---------5------------------

     Am                  G                    F
e|----------------------------------------0------------0-------
B|-------1----1------------0----------0------------0-----------
G|----------4---2-------------0--------------------------------
D|----------------2--------------------------------------------
A|---0---------------------------------------------------------
E|---------------------0-----------0----------0----------------

 
   verso a...ahora que el barco se hunde...
      
   naaadé....
     
   verso b...la espuma de venus...
  
     Am                F                Em
e|---------------------------------------------------------|
B|--------1----1----------1----1-----------0---------0-----|
G|-----------4----2----------4---2------------0---------0--|
D|------------------2--------------3-----------------------|
A|---0-----------------------------------------------------|
E|---------------------1----------------0------------------|


   Dm                    F                    Am
e|------------------------------------------------------------------|
B|---------6--5--6p5-----------6--5--6p5----------0-1-0h1---3p1-0---|
G|------7-------------7-----7-------------7-----------------------0-|
D|---7-------------------7------------------------------------------|
A|-5------------------------------------------0---------------------|
E|------------------------------------------------------------------|


  puente: 
   F        C        G        C         F        C        G        C
e|------------------------------------|----------------------------3------|
B|-1------1-3------3-3------3-1-------|-1------1-3------3-3------3---3----|
G|---2--------0--------0--------0---0-|---2--------0--------0----------0--|
D|-----3--------2--------0--------2---|-----3--------2--------0-----------|
A|------------------------------------|-----------------------------------|
E|------------------------------------|-----------------------------------|


  estribillo...la ficción es y será... 

   F        C        G        C        F      C        G           C
e|----------------------------0------|-----------------------------3----|
B|-1------1-1------1-3------3---1----|-1------1-1------1-3------3----3--|
G|---2--------0--------0----------0--|---2--------0--------0------------|4x
D|-----3--------2--------0-----------|-----3--------2--------0----------|
A|-----------------------------------|----------------------------------|
E|-----------------------------------|----------------------------------|


  2do riff 

     F      C       G        C     F      C    G
e|---------------------------------------------------|
B|---1--3-1-3/5-\---1--3-1-3/8~----1--3-1-3/5--8~~~--|
G|---------------------------------------------------|
D|---------------------------------------------------|
A|---------------------------------------------------|
E|---------------------------------------------------|

  
  verso a...artista de mi pecado...

  naaadé...
   
  verso b...perfume inmaterial...

  puente

  estribillo 2 veces 


  solo outro: 
     F      C       G        C     F      C    G
e|---------------------------------------------------|
B|---1--3-1-3/5-\---1--3-1-3/8~----1--3-1-3/5--8~~~--|
G|---------------------------------------------------| 2x
D|---------------------------------------------------|
A|---------------------------------------------------|
E|---------------------------------------------------|

       F       C       G       C          F           C         F 
e|-----------3p0-3-5p3-5h8-5-8-10-8-10-12-15p12-10h12-10p8-10-8-10~~~~--|
B|---3-5p3-5------------------------------------------------------------|
G|----------------------------------------------------------------------|
D|----------------------------------------------------------------------|
A|----------------------------------------------------------------------|
E|----------------------------------------------------------------------|


esta cancion esta muy muy chida , le dedico este tab a ml donde quiera 
que estes

            
            
Suggest correction
Creating personal tab
Creating personal tab
You can edit any tab online and save it as your Personal.

You can edit, replace or remove any tab part or add personal notes – all changes will be seen only by you.

Personal tabs can be accessed anytime from any device, even offline.
Learn more »
Give kudos to tab author, rate the tab!
1 2 3 4 5
comments
print report bad tab
guest
Wanna post a correction for this tab? Suggest correction