Oops, an error
Loading. Please wait.

La Herida tab

version 4
version 4

Interactive

67 views 1 this week
no commentswrite comment
1 2 3 4 5
3 more votes to show rating
add to favorites
×
Save as Personal and add changes to this tab that will be seen only by you. Learn more ›
×
You can save this tab as Personal to edit and correct it or add notes. All changes will be seen only by you. Learn more »
launch autoscroll
font size
0
reset
how to read this tab
guitar tuner
edit
Autoscroll
slow
fast
+/-
esc
set tempo
stop
    ok este es la version live 2007 de esta cancion que
no contiene el solo pero el intro es 100% correctoy no se puede tocar
el acorde G en otra manera osi no el intro no sera bien espero
que les guste o y tambien los acordes no estan en su lugar pero
espero que le encuentren la manera. o y el intro se toca 3 veces.


    Am                  G                   Dm                  Am

e|--0-0---0h1p0---------3-3--------------------1---0---5---4---3---2--0--|]
B|--1--1-------3p1p0----3---3--3h4p3---------6---2---6---5---4---3----1--|]
G|--2---2-----------2-0-4-----4------5-4-----7------------------------2--|]
D|--2-------------------5----------------5/7-7------------------------2--|]
A|--0-----------------------------------------------------------------0--|]
E|-----------------------------------------------------------------------|]


  Am
e-------------------------------'
B-0h1p0-------------------------'
G------0h2p0--------------------'
D-----------0h2p0---------------'
A-------------------------------'
E-------------------------------'


Coro=-
  C Em F Am
      Siempre es la m isma función, el  mismo espectad or,
  C Em F G
      el mismo te atro, en el que  tantas veces actu ó.
  Am C G Dm Am
      Perd er la razó n en un jue go tan r eal
  C Em G Am
      quizás fuera un  error, c úrame esta herida, por fav or.

-=Verso 1=-
  Am G
     Que hay en d os amigos cuand o después de todo
  F Am
     par ecen perdidos y pref ieren a otros?
  Am G
     Que d an lerdas manos, ignor ando lo dado,
  F Am
     si ant año se estrecharon, ¿ahora es tán engañados?
  Am G
     ¿Que les  hizo alejarse de su  orilla intranquila,
  F Am
      tan siquiera un instante  piensan en esos días?

-=Coro=-
  C Em F Am
      Siempre es la m isma función, el  mismo espectad or,
  C Em F G
      el mismo te atro, en el que  tantas veces actu ó.

  Am C G Dm Am
      Perd er la razó n en un jue go tan r eal
  C Em G Am
      quizás fuera un  error, c úrame esta herida, por fav or.

  Am G Dm Am


    Am                  G                   Dm                  Am

e|--0-0---0h1p0---------3-3--------------------1---0---5---4---3---2--0--|]
B|--1--1-------3p1p0----3---3--3h4p3---------6---2---6---5---4---3----1--|]
G|--2---2-----------2-0-4-----4------5-4-----7------------------------2--|]
D|--2-------------------5----------------5/7-7------------------------2--|]
A|--0-----------------------------------------------------------------0--|]
E|-----------------------------------------------------------------------|]

  Am
e-------------------------------'
B-0h1p0-------------------------'
G------0h2p0--------------------'
D-----------0h2p0---------------'
A-------------------------------'
E-------------------------------'


-=Verso 2=-
  Am G
      siempre he preferido un b eso prolongado,
  F Am
     aunque  sepa que miente, aunque  sepa que es falso.
  Am G F
      ¿que demonios ocurre cuan do miradas no se encuentran ?
  Am
     la pelea de gallos, se  admiten apuestas.
  Am G
      ¿quien busco abrigo en alg ún otro lugar?
  F Am
     ¿es pos ible que el frío v enga con la edad?

-=Coro=-
  C Em F Am
      Siempre es la m isma función, el  mismo espectad or,
  C Em F G
      el mismo te atro, en el que  tantas veces actu ó.
  Am C G Dm Am
      Perd er la razó n en un jue go tan r eal
  C Em G Am
      quizás fuera un  error, c úrame esta herida, por fav or.


 ok este es la transcription que si es buena por si miran dos canciones de
la herida esojan la que tiene esta anotacion.

            
            
Suggest correction
Creating personal tab
Creating personal tab
You can edit any tab online and save it as your Personal.

You can edit, replace or remove any tab part or add personal notes – all changes will be seen only by you.

Personal tabs can be accessed anytime from any device, even offline.
Learn more »
Give kudos to tab author, rate the tab!
1 2 3 4 5
comments
print report bad tab
guest
Wanna post a correction for this tab? Suggest correction