Oops, an error
Loading. Please wait.

La Herida tab

version 5
version 5

Interactive

121 views 1 this week
no commentswrite comment
1 2 3 4 5
3 more votes to show rating
add to favorites
×
Save as Personal and add changes to this tab that will be seen only by you. Learn more ›
×
You can save this tab as Personal to edit and correct it or add notes. All changes will be seen only by you. Learn more »
launch autoscroll
font size
0
reset
how to read this tab
guitar tuner
edit
Autoscroll
slow
fast
+/-
esc
set tempo
stop
Hola a todos, se que ya estaban los tabs de esta canción, pero ninguna 
contenia lo que se toca en la parte rápida que viene en la versión 
original (la que viene en el espíritu del vino), ademas esta contiene el 
solo de la canción.

INTRO 3 veces (1 vez la guitarra, 2 veces mientras toca la armónica)
E-0--0---0/1/0-0-------3--3-----------------1---1--1-1/3-0/1--0----------
B-1---1-------3-3-1-0--3---3---3/5/3-3------3----3-----------3-1/3-1-1---
G-2----2-------------0-0----0-------5-5-4-0-2-2---2----------------2--2--
D-2--------------------0--------------------0----------------------2---2-
A-0--------------------2--------------------0----------------------0-----
E-0--------------------3--------------------0----------------------------

E------------------------------------------------------------------------
B-0/1/0-0----------------------------------------------------------------
G------2-0/2/0-----------------------------------------------------------
D-------------2-0--------------------------------------------------------
A------------------------------------------------------------------------
E------------------------------------------------------------------------

C              Em               Am                                            
Siempre es la misma función, el mismo espectador
C          Em               Am                                               
El mismo teatro, en el que tantas veces actuo
C            Em       Am                             
Y perder la razón en un juego tan real
C               Em     G           F
Quizás fuera un error, cúrame esta herida por favor

E-5---8--7--5----3-1-0---------------------------------------------------
B---5--5--5-5/1----------------------------------------------------------
G------------------------------------------------------------------------
D------------------------------------------------------------------------
A------------------------------------------------------------------------
E------------------------------------------------------------------------

            Am             G                    Dm                  Am           
Que hay en dos amigos cuando después de todo parecen perdidos y prefieren 

A otros
                          G                  Dm                              
Que dan lerdas manos ignorando lo dado si antaño se estrecharon ahora 
   Am            
están engañados
                              G                  Dm  
Y que les hizo alejarse de su orilla intranquila tan siquiera un instante 
       E-------------------------
       B-1-1---0/1/0-0-----------                               
       G-2--2-------2-0/2/0------
       D-2---2-------------2-0---
       A-------------------------
Am     E-------------------------                                
piensan en esos días   

C              Em               Am                                            
Siempre es la misma función, el mismo espectador
C          Em               Am                                               
El mismo teatro, en el que tantas veces actuo
C            Em       Am                             
Y perder la razón en un juego tan real
C               Em     G           F
Quizás fuera un error, cúrame esta herida por favor

( se toca una vez con guitarra eléctrica ) 
E-0--0---0/1/0-0-------3--3-----------------1---1--1-1/3-0/1--0----------
B-1---1-------3-3-1-0--3---3---3/5/3-3------3----3-----------3-1/3-1-1---
G-2----2-------------0-0----0-------5-5-4-0-2-2---2----------------2--2--
D-2--------------------0--------------------0----------------------2---2-
A-0--------------------2--------------------0----------------------0-----
E-0--------------------3--------------------0----------------------------

E------------------------------------------------------------------------
B-0/1/0-0----------------------------------------------------------------
G------2-0/2/0-----------------------------------------------------------
D-------------2-0--------------------------------------------------------
A------------------------------------------------------------------------
E------------------------------------------------------------------------


            Am           G                    Dm                             
Siempre he preferido un beso prolongado aunque sepa que miente, aunque 
Am
sepa que es falso 
                          G                          Dm                              
Que demonios acurre cuando miradas no se encuentran, la pelea de gallos,   
     Am
se admiten apuestas 
                      G                       Dm                 Am 
Quién buscó abrigo en algún otro lugar, es posible que el frio venga con 
E-------------------------
B-1-1---0/1/0-0-----------                               
G-2--2-------2-0/2/0------
D-2---2-------------2-0---
A-------------------------
E-------------------------
LA edad

C              Em               Am                                            
Siempre es la misma función, el mismo espectador
C          Em               Am                                               
El mismo teatro, en el que tantas veces actuo
C            Em       Am                             
Y perder la razón en un juego tan real
C               Em     G           F      *        
Quizás fuera un error, cúrame esta herida por favor

( * aquí empieza la parte rapida )

 
mientras grita (por favooooor) se toca esto 4 veces ( 2 mientras grita,
 y 2 durante el solo de armónica ):

E------------------------------------------------------------------------
B-1-1-1-1-1-1-0-0-0-0-0-0-0-0-0-0-0-0-0-0-0-0-0-0------------------------
G-2-2-2-2-2-2-2-2-2-2-2-2-0-0-0-0-0-0-0-0-0-0-0-0------------------------
D-2-2-2-2-2-2-2-2-2-2-2-2-2-2-2-2-2-2-0-0-0-0-0-0------------------------
A-0-0-0-0-0-0-0-0-0-0-0-0-2-2-2-2-2-2-2-2-2-2-2-2------------------------
E------------------------------------------------------------------------

C              Em               Am                                            
Siempre es la misma función, el mismo espectador
C          Em               Am                                               
El mismo teatro, en el que tantas veces actuo
C            Em       Am                             
Y perder la razón en un juego tan real
C               Em     G           F
Quizás fuera un error, cúrame esta herida por favor

( mientras grita aquí ?por favor?, empieza el solo), EL * indica que el 
deslizamiento es mucho más rápido de lo normal.

E------------------------------------------------------------------------
B-------1-3-5-0-1/0---0-1--6-6-5-3-5/6/5-1-1-0---0/1/0---0-1-3-5-5-5/6/5-
G-----2-------------2--------------------------2-------2-----------------
D---2--------------------------------------------------------------------
A-0----------------------------------------------------------------------
E------------------------------------------------------------------------

E------------------------------------------------------------------------
B-3-5-3--3-8-6-5-6-5-3-1-3-1-0---1-3-5-0-1/0---0-1--6-6-5-3-5/6/5-1-1-0--
G------------------------------2-------------2--------------------------2
D------------------------------------------------------------------------
A------------------------------------------------------------------------
E------------------------------------------------------------------------

E-------------------------------------------------------10-8----8-10-8---
B-0/1/0---0-1-3-5-5-5/6/5-3-5-3-6-6-6-8-8-8-10-10-10-12------10--------10
G-------2----------------------------------------------------------------
D------------------------------------------------------------------------
A------------------------------------------------------------------------
E------------------------------------------------------------------------

E-8-10-8----8-10-8----8-10-8----8-10-8----8-10-8----8-10/17-8-10-8-10-8--
B--------10--------10--------10--------10--------10----------------------
G------------------------------------------------------------------------
D------------------------------------------------------------------------
A------------------------------------------------------------------------
E------------------------------------------------------------------------

E-7-7/8/7-5-7-5-3-5-3-5-3-2-3-2-3-2---8*7*5-8*7*5-8*7*5-8*7*5-7*5*3-7*5*3
B------------------------------------------------------------------------
G------------------------------------------------------------------------
D------------------------------------------------------------------------
A------------------------------------------------------------------------
E------------------------------------------------------------------------


E-7*5*3-7*5*3-5*3*1-5*3*1-5*3*1-5*3*1-3*1*0-3*1*0-3*1*0-3*1*0-8*7*5-8*7*5
B------------------------------------------------------------------------
G------------------------------------------------------------------------
D------------------------------------------------------------------------
A------------------------------------------------------------------------
E------------------------------------------------------------------------

E-8*7*5-8*7*5-7*5*3-7*5*3-7*5*3-7*5*3-5*3*1-5*3*1-5*3*1-5*3*1-3*1*0-3*1*0
B------------------------------------------------------------------------
G------------------------------------------------------------------------
D------------------------------------------------------------------------
A------------------------------------------------------------------------
E------------------------------------------------------------------------

E-3*1*0-3*1*0------------------------------------------------------------
B------------------------------------------------------------------------
G------------------------------------------------------------------------
D------------------------------------------------------------------------
A------------------------------------------------------------------------
E------------------------------------------------------------------------

C              Em               Am                                            
Siempre es la misma función, el mismo espectador
C          Em               Am                                               
El mismo teatro, en el que tantas veces actuo
C            Em       Am                             
Y perder la razón en un juego tan real
C               Em     G           F
Quizás fuera un error, cúrame esta herida por favooooooo(por un largo 
                  Am
Tiempo) ooooooooooor.


Bueno, eso es todo, en otra ocasión enviaré lo que toca la armónica a lo 
largo de la canción, incluyendo el solo.   Adios.

            
            
Suggest correction
Creating personal tab
Creating personal tab
You can edit any tab online and save it as your Personal.

You can edit, replace or remove any tab part or add personal notes – all changes will be seen only by you.

Personal tabs can be accessed anytime from any device, even offline.
Learn more »
Give kudos to tab author, rate the tab!
1 2 3 4 5
comments
print report bad tab
guest
Wanna post a correction for this tab? Suggest correction