Oops, an error
Loading. Please wait.

La Isla De Las Iguanas bass

version 1
version 1

Whole song

Interactive

18 views 1 this week
no commentswrite comment
1 2 3 4 5
3 more votes to show rating
add to favorites
×
Save as Personal and add changes to this tab that will be seen only by you. Learn more ›
×
You can save this tab as Personal to edit and correct it or add notes. All changes will be seen only by you. Learn more »
launch autoscroll
font size
0
reset
guitar tuner
edit
Autoscroll
slow
fast
+/-
esc
set tempo
stop
esta es una buena cancion, el bajo suena asi

intro
----------|
----------|
---3---3-3|esto tres veses
1-1-1h3---|

----------|
----------|
---3---1-1|
1-1-1-3---|

despues del intro sige asi

----------|
----------|
---3---3-3|esto se repite varias veses
1-1-1h3---|

despues continua asi

---------------------|---------------------|
---------------------|---------------------|todo esto 
---3---3-3----3---3-3|---1---1-1----1---1-1|dos veses
1-1-1h3----1-1-1h3---|1-1-1h3----1-1-1h3---|
(0:41)=el tiempo en que entra

---|-----|---|-------|---------|---|
---|-----|---|-------|---------|---|
---|-----|4-4|-------|---------|---|
2-2|2-4-5|---|0h1-2-2|5-4-2-4-2|2-1|
(0:55)

---|-----|---|-------|---------|
---|-----|---|-------|---------|
---|-----|4-4|-------|---------|
2-2|2-4-5|---|0h1-2-2|5-4-2-4-2|

---------------------|---------------------|
---------------------|---------------------|todo esto 
---3---3-3----3---3-3|---1---1-1----1---1-1|dos veses
1-1-1h3----1-1-1h3---|1-1-1h3----1-1-1h3---|
(1:05)

---|-----|---|-------|---------|---|
---|-----|---|-------|---------|---|
---|-----|4-4|-------|---------|---|
2-2|2-4-5|---|0h1-2-2|5-4-2-4-2|2-1|
(1:19)

---|-----|---|-------|---------|
---|-----|---|-------|---------|
---|-----|4-4|-------|---------|
2-2|2-4-5|---|0h1-2-2|5-4-2-4-2|

despues entra lo que yo le llamo el coro

-----------|-----------|---------|-----|
-----------|-----------|---------|-----|esto dos
4-4-4-4-4-4|-----------|---------|-----|veses
-----------|4-4-4-4-4-4|2-2-4-2-2|2-4-5|
(1:24)

---|-----|---|-------|---------|---|
---|-----|---|-------|---------|---|
---|-----|4-4|-------|---------|---|
2-2|2-4-5|---|0h1-2-2|5-4-2-4-2|2-1|
(1:43)

---|-----|---|-------|---------|
---|-----|---|-------|---------|
---|-----|4-4|-------|---------|
2-2|2-4-5|---|0h1-2-2|5-4-2-4-2|

vuelve a entrar el intro

----------|
----------|
---3---3-3|esto tres veses
1-1-1h3---|
(1:55)
----------|
----------|
---3---1-1|
1-1-1-3---|

despues  sige asi

----------|
----------|
---3---3-3|esto se repite cuatro veses
1-1-1h3---|
(2:00)

---------------------|---------------------|
---------------------|---------------------|todo esto 
---3---3-3----3---3-3|---1---1-1----1---1-1|dos veses
1-1-1h3----1-1-1h3---|1-1-1h3----1-1-1h3---|
(2:07)

despues vuelve a entrar el coro

-----------|-----------|---------|-----|
-----------|-----------|---------|-----|esto cuatro
4-4-4-4-4-4|-----------|---------|-----|veses
-----------|4-4-4-4-4-4|2-2-4-2-2|2-4-5|
(2:21)

despues
-----------|---------|
-----------|---------|
-----------|---------|
2-2-4-2-2-2|2-2-4-2-2|
(2:48)

---|-----|---|-------|---------|---|
---|-----|---|-------|---------|---|
---|-----|4-4|-------|---------|---|
2-2|2-4-5|---|0h1-2-2|5-4-2-4-2|2-1|
(3:02)

---|-----|---|-------|---------|
---|-----|---|-------|---------|
---|-----|4-4|-------|---------|
2-2|2-4-5|---|0h1-2-2|5-4-2-4-2|

y eso es todo dudas o correccione no duden en escribir

ojala alguien mande el tab de guitarra para completar esta buena cancion.
Suggest correction
Creating personal tab
Creating personal tab
You can edit any tab online and save it as your Personal.

You can edit, replace or remove any tab part or add personal notes – all changes will be seen only by you.

Personal tabs can be accessed anytime from any device, even offline.
Learn more »
Give kudos to tab author, rate the tab!
1 2 3 4 5
comments
print report bad tab
guest
Wanna post a correction for this tab? Suggest correction