Oops, an error
Loading. Please wait.

La Isla De Las Iguanas tab

version 1
version 1

Whole song

Interactive

57 views 1 this week
no commentswrite comment
1 2 3 4 5
3 more votes to show rating
add to favorites
×
Save as Personal and add changes to this tab that will be seen only by you. Learn more ›
×
You can save this tab as Personal to edit and correct it or add notes. All changes will be seen only by you. Learn more »
launch autoscroll
font size
0
reset
how to read this tab
guitar tuner
edit
Autoscroll
slow
fast
+/-
esc
set tempo
stop
Me quize aprender esta cancion pero las versiones anteriores no
se me hiciero muy claras, aqui les dejo lo que yo creo que son
las correctas tablaturas, ojala les gusto es muy facil.

por favor voten lo que crean justo.
envianme al rock_sera@


Sec1
E-----------------
B-----------------
G-----------------
D-----------------
A------3-----3---3
E--4-4---2h4------

Sec2
E-7--7-7--7--7-
B-7--7-7--7--7-
G-8--8-8--8--8-
D-9--9-9--9--9-
A-9--9-9--9--9-
E-7--7-7--7--7-

Sec3
E------------------------
B------------------------
G-4/5--5-5--5-5--5-8-5-5-
D------------------------
A------------------------
E------------------------

Sec4
E------------------
B------------------
G-5-5--5-5--5-8-5-5
D------------------
A------------------
E------------------


Sec5
E------------------------------------
B------------------------------------
G-8-9-8--9-9-9--8-9--8---8-9---------
D----------------------10----10------
A------------------------------------
E------------------------------------

Sec6         /esta linea solo se toca la segunda vuelta solamenta una vez
E-3----------3--3-----4-3--3-1---------------
B---4--------4----4------------2--------4-3--
G-----5---5--5------5------------3--3-5-----4
D-------5----5-------------------------------
A--------------------------------------------
E--------------------------------------------

Sec7
E-8-----8-----7-----6-----6-----5----
B---9-----6-----8-----7-----7-----6--
G-----10----10----9-----8-----8-----7--(fin--/10)
D------------------------------------
A------------------------------------
E------------------------------------

Sec8
E-----------------------------------------
B----7-------7-----8-----7--------7-----7-
G--9---9-------9-------9---9----9---9-----
D--9-----9-------9-----9-----9--------9---
A-----------------------------------------
E-----------------------------------------

Sec1 = x4
Sec2 = x4
Sec3 = x4
Sec4 = x1
Sec3 = x3
Sec5 = x4
Sec6 = x2
Sec7 = x2
Sec6 = x2
Sec7 = x2
Sec8 = x2
Sec7 = x2
Sec1 = x4
Sec2 = x4
Sec6 = x2
Sec8 = x4
No tocas cuando canta "las iguanas"
Sec7 = x2

            
            
Suggest correction
Creating personal tab
Creating personal tab
You can edit any tab online and save it as your Personal.

You can edit, replace or remove any tab part or add personal notes – all changes will be seen only by you.

Personal tabs can be accessed anytime from any device, even offline.
Learn more »
Give kudos to tab author, rate the tab!
1 2 3 4 5
comments
print report bad tab
guest
Wanna post a correction for this tab? Suggest correction