Oops, an error
Loading. Please wait.

La Lluvia Gris tab

version 1
version 1

Whole song

Interactive

55 views 3 this week
no commentswrite comment
1 2 3 4 5
3 more votes to show rating
add to favorites
×
Save as Personal and add changes to this tab that will be seen only by you. Learn more ›
×
You can save this tab as Personal to edit and correct it or add notes. All changes will be seen only by you. Learn more »
launch autoscroll
font size
0
reset
how to read this tab
guitar tuner
edit
Autoscroll
slow
fast
+/-
esc
set tempo
stop
aqui les va la lluvia gris

INTRO

E--0-0-0-0-0-0--|
B--2-2-2-2-2-2--|
G--2-2-2-2-2-2--| x 4 (veces)
D--2-2-2-2-2-2--|
A--0-0-0-0-0-0--|
e--0-0-0-0-0-0--|

E-0-0-0--0-0-0--0-0-0-0-0-0--0-0-|
B-2-2-2--3-3-3--2-2-2-2-2-2--0-0-|
G-2-2-2--2-2-2--2-2-2-2-2-2--2-2-| x 4 (veces)
D-2-2-2--2-2-2--2-2-2-2-2-2--2-2-|
A-0-0-0--0-0-0--0-0-0-0-0-0--0-0-|
e-0-0-0--0-0-0--0-0-0-0-0-0--0-0-|

E-2-2-2-2-2-2--4-4-4--0-0-0-0-|             |-2-2-2-2-2-2-|
B-4-4-4-4-4-4--5-5-5--2-2-2-2-|             |-4-4-4-4-4-4-| 
G-4-4-4-4-4-4--6-6-6--2-2-2-2-| x 3 (veces) |-4-4-4-4-4-4-|
D-4-4-4-4-4-4--6-6-6--2-2-2-2-|             |-4-4-4-4-4-4-|
A-2-2-2-2-2-2--4-4-4--0-0-0-0-|             |-2-2-2-2-2-2-|
e-2-2-2-2-2-2--4-4-4--0-0-0-0-|             |-2-2-2-2-2-2-|


E--------------------------------------------------------------------|
B-----------------------------------------------------------12-------|
G-14----14----14----14----14----11---11---12----12----12-------12----|  
D----12----12----12----12----12----9----9----10----10----10-------10-|
A--------------------------------------------------------------------|
e--------------------------------------------------------------------|

E-----------------------------------------------------------10--------|
B---------------------------------------------------------------------|
G-14----14----14----14----14----11---11---12----12----12--------12----|  
D----12----12----12----12----12----9----9----10----10----10--------10-|
A---------------------------------------------------------------------|
e---------------------------------------------------------------------|

E--------------------------------------------------------------------|
B-----------------------------------------------------------12-------|
G-14----14----14----14----14----11---11---12----12----12-------12----|x 2 
D----12----12----12----12----12----9----9----10----10----10-------10-|
A--------------------------------------------------------------------|
e--------------------------------------------------------------------|

E-------------------------------------------------------------------|
B-------------------------------------------------------------------|
G-17----17----17----17----17----14----14----15----15----15----15----| x 3
D----15----15----15----15----15----12----12----13----13----13----13-|
A-------------------------------------------------------------------|
e-------------------------------------------------------------------|

E---------------------------------------------------|
B---------------------------------------------------|
G-17----17----17----17----17--14-14-14--15-15--17---| 
D----15----15----15----15-----12-12-12--13-13--15---|
A---------------------------------------------------|
e---------------------------------------------------|


A        A4       A    Em
la lluvia gris

A      A4      A      Em
se desata en recuerdos 

A      A4      A      Em
se desliza una gota

A     A4        A      Em
un segundo un deseo


Bm       G#m    A
uooooooooh  

Bm             G#m       A
tan solo un palabra por ti

Bm      G#m      A
uooooooooh

Bm             G#m         A
 una palabra por ti....


 A     A4     A    Em
la lluvia gris

A       A4      A     Em
desnuda una mascara 

A      A4      A    Em
solo por un beso    
 
A       A4      A     Em
no debo callar


Bm       G#m    A
uooooooooh  

Bm             G#m       A
tan solo un palabra por ti

Bm      G#m      A
uooooooooh

Bm             G#m         A
 una palabra por ti....


E--------------------------------------------------------------------|
B-----------------------------------------------------------12-------|
G-14----14----14----14----14----11---11---12----12----12-------12----|  
D----12----12----12----12----12----9----9----10----10----10-------10-|
A--------------------------------------------------------------------|
e--------------------------------------------------------------------|

E-----------------------------------------------------------10--------|
B---------------------------------------------------------------------|
G-14----14----14----14----14----11---11---12----12----12--------12----|  
D----12----12----12----12----12----9----9----10----10----10--------10-|
A---------------------------------------------------------------------|
e---------------------------------------------------------------------|

E--------------------------------------------------------------------|
B-----------------------------------------------------------12-------|
G-14----14----14----14----14----11---11---12----12----12-------12----|x 2 
D----12----12----12----12----12----9----9----10----10----10-------10-|
A--------------------------------------------------------------------|
e--------------------------------------------------------------------|


A       A4     A    Em
la lluvia gris

A        A4     A      Em
casi siempre en rechazo

A      A4    A      Em
tan larga es la espera 

A       A4      A     Em
en mi corazón


   


   apártame   del      peli__gro  cariñ_____o
E-2------|-4------|-0------|-0--------------0-------|
B--------|--------|--------|---2---2------2---2-----|
G----4---|----6---|----2---|-----2---2----------2---|
D------4-|------6-|------2-|-----------2------------|
A--------|--------|--------|------------------------|
e--------|--------|--------|------------------------|


       el hambre   muere en la   o__scu___rid___________ad
E-2------|-4------|-0------|---------------------------------------|
B--------|--------|--------|---------------------------------------|
G----4---|----6---|----2---|-2------2---2---2-----2---2----2-----2-|
D------4-|------6-|------2-|---2------2---2---2-----2--------------|
A--------|--------|--------|-----0--------------0--------0----0----|
e--------|--------|--------|---------------------------------------|


            apártame    del   peli__gro cariñ_________o
E--------------|--------------|----------0-------------0-----|
B----4---4-----|----5---5-----|---2---2----2-----2---2---2---|
G------4---4---|------6---6---|-----2--------2-----2-------2-|
D-4----------4-|-6----------6-|-2--------------2-------------|
A--------------|--------------|------------------------------|
e--------------|--------------|------------------------------|


             el   hambre    muere en la      oscuri_d_ad
E--------------|--------------|----------0-----------0---0-----|
B----4---4-----|----5---5-----|---2---2----2-----2-------------|
G------4---4---|------6---6---|-----2--------2-----2---2---2---|
D-4----------4-|-6----------6-|-2--------------2-------------2-|
A--------------|--------------|--------------------------------|
e--------------|--------------|--------------------------------|


   en la oscuridad...
E--------------------------------------------------------------------|
B-----------------------------------------------------------12-------|
G-14----14----14----14----14----11---11---12----12----12-------12----|  
D----12----12----12----12----12----9----9----10----10----10-------10-|
A--------------------------------------------------------------------|
e--------------------------------------------------------------------|

    en la oscuridad...
E-----------------------------------------------------------10--------|
B---------------------------------------------------------------------|
G-14----14----14----14----14----11---11---12----12----12--------12----|  
D----12----12----12----12----12----9----9----10----10----10--------10-|
A---------------------------------------------------------------------|
e---------------------------------------------------------------------|

     en la oscuridad...
E--------------------------------------------------------------------|
B-----------------------------------------------------------12-------|
G-14----14----14----14----14----11---11---12----12----12-------12----|x 2 
D----12----12----12----12----12----9----9----10----10----10-------10-|
A--------------------------------------------------------------------|
e--------------------------------------------------------------------|


Solo:

E-------------------|---------------|--------------------|------------|
B-------------------|---------------|--------------------|------------|
G-------------------|----13---------|---------14---------|------17----|
D-------13----13----|-15----15-13/12|13-14-16----16-14/13|14-15----13-|
A-11-13----11----11-|---------------|--------------------|------------|
e-------------------|---------------|--------------------|------------|

E-------------|----------------------|--------------------------------|
B-------------|----------------------|----------------------14--------|
G-15----14----|----------------------|----------------14-12----12-14--|
D----12----12-|-12-12-12-14-12/11-12-|----------14-12-----------------|
A-------------|----------------------|-12-14-12-----------------------|
e-------------|----------------------|--------------------------------|


E----------------------------------|---------------------------------|
B----------------------------------|---------------------------------|
G----------------------------------|-------15----15----15----15------|
D-12-14-12-12-14-12/14-------14-12-|-13-15----13----13----13----13/15|
A----------------------14-12-------|---------------------------------|
e----------------------------------|---------------------------------|

E-----------------------------------------------------|
B--------------17-----------17-----------17-----------|
G-17----17--------17-----------17-----------17-----17-|
D----15----15--------15-14--------15-14--------15-----|
A-----------------------------------------------------|
e-----------------------------------------------------|


uooooooooh...
tan solo una palabra por mi...
uooooooooh...
una palabra....  una palabra...
uooooooooh...
tan solo una pala bra por mi...
uooooooooh...
una palabra... 
tan solo una plabra quiero oir...

E-2-2-2-2-2-2--4-4-4--0-0-0-0-|             |-2-2-2-2-2-2-|
B-4-4-4-4-4-4--5-5-5--2-2-2-2-|             |-4-4-4-4-4-4-| 
G-4-4-4-4-4-4--6-6-6--2-2-2-2-| x 3 (veces) |-4-4-4-4-4-4-|
D-4-4-4-4-4-4--6-6-6--2-2-2-2-|             |-4-4-4-4-4-4-|
A-2-2-2-2-2-2--4-4-4--0-0-0-0-|             |-2-2-2-2-2-2-|
e-2-2-2-2-2-2--4-4-4--0-0-0-0-|             |-2-2-2-2-2-2-|


E-0-0-0--0-0-0--0-0-0-0-0-0--0-0-|
B-2-2-2--3-3-3--2-2-2-2-2-2--0-0-|
G-2-2-2--2-2-2--2-2-2-2-2-2--2-2-| x 4 (veces)
D-2-2-2--2-2-2--2-2-2-2-2-2--2-2-|
A-0-0-0--0-0-0--0-0-0-0-0-0--0-0-|
e-0-0-0--0-0-0--0-0-0-0-0-0--0-0-|


estoda la canción espero que les guste y hay alguna duda o correccion mandemela
estare esperando 

            
            
Suggest correction
Creating personal tab
Creating personal tab
You can edit any tab online and save it as your Personal.

You can edit, replace or remove any tab part or add personal notes – all changes will be seen only by you.

Personal tabs can be accessed anytime from any device, even offline.
Learn more »
Give kudos to tab author, rate the tab!
1 2 3 4 5
comments
print report bad tab
guest
Wanna post a correction for this tab? Suggest correction