Oops, an error
Loading. Please wait.

La Lluvia Gris tab

version 2
version 2

Whole song

Interactive

29 views 1 this week
no commentswrite comment
1 2 3 4 5
3 more votes to show rating
add to favorites
×
Save as Personal and add changes to this tab that will be seen only by you. Learn more ›
×
You can save this tab as Personal to edit and correct it or add notes. All changes will be seen only by you. Learn more »
launch autoscroll
font size
0
reset
how to read this tab
guitar tuner
edit
Autoscroll
slow
fast
+/-
esc
set tempo
stop
SUENA BIEN EL SOLO ESTA AL FINAL


E||------------------|------------------|------------------|------------------|
B||------------------|------------------|------------------|------------------|
G||------------------|------------------|------------------|------------------|
D||------------------|------------------|------------------|------------------|
A||------------------|------------------|------------------|------------------|
E||------------------|------------------|------------------|------------------|


--0---0-0--0---0-0--0--0-0-|--0---0-0--0---0-0--0--0-0-|
--2---2-2--2---2-2--2--2-2-|--2---2-2--2---2-2--2--2-2-|
--2---2-2--2---2-2--2--2-2-|--2---2-2--2---2-2--2--2-2-|
--2---2-2--2---2-2--2--2-2-|--2---2-2--2---2-2--2--2-2-|
--0---0-0--0---0-0--0--0-0-|--0---0-0--0---0-0--0--0-0-|
--0---0-0--0---0-0--0--0-0-|--0---0-0--0---0-0--0--0-0-|


--0---0-0--0---0-0--0--0-0-|--0---0-0--0---0-0--0--0-0-|
--2---2-2--2---2-2--2--2-2-|--2---2-2--2---2-2--2--2-2-|
--2---2-2--2---2-2--2--2-2-|--2---2-2--2---2-2--2--2-2-|
--2---2-2--2---2-2--2--2-2-|--2---2-2--2---2-2--2--2-2-|
--0---0-0--0---0-0--0--0-0-|--0---0-0--0---0-0--0--0-0-|
--0---0-0--0---0-0--0--0-0-|--0---0-0--0---0-0--0--0-0-|


--0---0-0--0---0-0--0--0-0-|--0---0-0--0---0-0--0----|
--2---2-2--3---3-3--3--3-3-|--2---2-2--0---0-0--0----|
--2---2-2--2---2-2--2--2-2-|--2---2-2--2---2-2--2----|
--2---2-2--2---2-2--2--2-2-|--2---2-2--2---2-2--2----|
--0---0-0--0---0-0--0--0-0-|--0---0-0--0---0-0--0----|
--0---0-0--0---0-0--0--0-0-|--0---0-0--0---0-0--0----|


--0---0-0--0---0-0--0--0-0-|--0---0-0--0---0-0--0----|
--2---2-2--3---3-3--3--3-3-|--2---2-2--0---0-0--0----|
--2---2-2--2---2-2--2--2-2-|--2---2-2--2---2-2--2----|
--2---2-2--2---2-2--2--2-2-|--2---2-2--2---2-2--2----|
--0---0-0--0---0-0--0--0-0-|--0---0-0--0---0-0--0----|
--0---0-0--0---0-0--0--0-0-|--0---0-0--0---0-0--0----|


--0---0-0--0---0-0--0--0-0-|--0---0-0--0---0-0--0----|
--2---2-2--3---3-3--3--3-3-|--2---2-2--0---0-0--0----|
--2---2-2--2---2-2--2--2-2-|--2---2-2--2---2-2--2----|
--2---2-2--2---2-2--2--2-2-|--2---2-2--2---2-2--2----|
--0---0-0--0---0-0--0--0-0-|--0---0-0--0---0-0--0----|
--0---0-0--0---0-0--0--0-0-|--0---0-0--0---0-0--0----|


--0---0-0--0---0-0--0--0-0-|--0---0-0--0---0-0--0----|
--2---2-2--3---3-3--3--3-3-|--2---2-2--0---0-0--0----|
--2---2-2--2---2-2--2--2-2-|--2---2-2--2---2-2--2----|
--2---2-2--2---2-2--2--2-2-|--2---2-2--2---2-2--2----|
--0---0-0--0---0-0--0--0-0-|--0---0-0--0---0-0--0----|
--0---0-0--0---0-0--0--0-0-|--0---0-0--0---0-0--0----|


--2---2-2--2---2-2--2--2-2-|--4---4-4--0---0-0--0----|
--4---4-4--4---4-4--4--4-4-|--5---5-5--2---2-2--2----|
--4---4-4--4---4-4--4--4-4-|--6---6-6--2---2-2--2----|
--4---4-4--4---4-4--4--4-4-|--6---6-6--2---2-2--2----|
--2---2-2--2---2-2--2--2-2-|--4---4-4--0---0-0--0----|
--2---2-2--2---2-2--2--2-2-|--4---4-4--0---0-0--0----|


--2---2-2--2---2-2--2--2-2-|--4---4-4--0---0-0--0----|
--4---4-4--4---4-4--4--4-4-|--5---5-5--2---2-2--2----|
--4---4-4--4---4-4--4--4-4-|--6---6-6--2---2-2--2----|
--4---4-4--4---4-4--4--4-4-|--6---6-6--2---2-2--2----|
--2---2-2--2---2-2--2--2-2-|--4---4-4--0---0-0--0----|
--2---2-2--2---2-2--2--2-2-|--4---4-4--0---0-0--0----|


--2---2-2--2---2-2--2--2-2-|--4---4-4--0---0-0--0----|
--4---4-4--4---4-4--4--4-4-|--5---5-5--2---2-2--2----|
--4---4-4--4---4-4--4--4-4-|--6---6-6--2---2-2--2----|
--4---4-4--4---4-4--4--4-4-|--6---6-6--2---2-2--2----|
--2---2-2--2---2-2--2--2-2-|--4---4-4--0---0-0--0----|
--2---2-2--2---2-2--2--2-2-|--4---4-4--0---0-0--0----|


--2---2-2--2---2-2--2--2-2-|--2---2-2--2---2-2--2--2-2-|
--4---4-4--4---4-4--4--4-4-|--4---4-4--4---4-4--4--4-4-|
--4---4-4--4---4-4--4--4-4-|--4---4-4--4---4-4--4--4-4-|
--4---4-4--4---4-4--4--4-4-|--4---4-4--4---4-4--4--4-4-|
--2---2-2--2---2-2--2--2-2-|--2---2-2--2---2-2--2--2-2-|
--2---2-2--2---2-2--2--2-2-|--2---2-2--2---2-2--2--2-2-|


----------------------------------------|---------------------------------|
----------------------------------------|----------------------12---------|
--14-----14-----14-----14-----14-----11-|-----11----12-----12------12-----|
-----12-----12-----12-----12-----12-----|--9------------10------------10--|
----------------------------------------|---------------------------------|
----------------------------------------|---------------------------------|


----------------------------------------|----------------------10---------|
----------------------------------------|---------------------------------|
--14-----14-----14-----14-----14-----11-|-----11----12-----12------12-----|
-----12-----12-----12-----12-----12-----|--9------------10------------10--|
----------------------------------------|---------------------------------|
----------------------------------------|---------------------------------|


----------------------------------------|---------------------------------|
----------------------------------------|----------------------12---------|
--14-----14-----14-----14-----14-----11-|-----11----12-----12------12-----|
-----12-----12-----12-----12-----12-----|--9------------10------------10--|
----------------------------------------|---------------------------------|
----------------------------------------|---------------------------------|


----------------------------------------|---------------------------------|
----------------------------------------|----------------------12---------|
--14-----14-----14-----14-----14-----11-|-----11----12-----12------12-----|
-----12-----12-----12-----12-----12-----|--9------------10------------10--|
----------------------------------------|---------------------------------|
----------------------------------------|---------------------------------|


----------------------------------------|----------------------------------|
--13-----13-----13-----13-----13-----10-|-----10----11----11----11----11---|
-----10-----10-----10-----10-----10-----|--7-----7-----8-----8-----8-----8-|
----------------------------------------|----------------------------------|
----------------------------------------|----------------------------------|
----------------------------------------|----------------------------------|


----------------------------------------|----------------------------------|
--13-----13-----13-----13-----13-----10-|-----10----11----11----11----11---|
-----10-----10-----10-----10-----10-----|--7-----7-----8-----8-----8-----8-|
----------------------------------------|----------------------------------|
----------------------------------------|----------------------------------|
----------------------------------------|----------------------------------|


----------------------------------------|----------------------------------|
--13-----13-----13-----13-----13-----10-|-----10----11----11----11----11---|
-----10-----10-----10-----10-----10-----|--7-----7-----8-----8-----8-----8-|
----------------------------------------|----------------------------------|
----------------------------------------|----------------------------------|
----------------------------------------|----------------------------------|


------------------------------------|------------------------------|
--13-----13-----13-----13-----13----|------------------------------|
-----10-----10-----10-----10--------|--14-14--14----15---15--17----|
------------------------------------|--12-12--12----13---13--15----|
------------------------------------|------------------------------|
------------------------------------|------------------------------|


--0---0-0--0---0-0--0--0-0-|--0---0-0--0---0-0--0----|
--2---2-2--3---3-3--3--3-3-|--2---2-2--0---0-0--0----|
--2---2-2--2---2-2--2--2-2-|--2---2-2--2---1-1--1----|
--2---2-2--2---2-2--2--2-2-|--2---2-2--2---2-2--2----|
--0---0-0--0---0-0--0--0-0-|--0---0-0--0---2-2--2----|
--0---0-0--0---0-0--0--0-0-|--0---0-0--0---0-0--0----|


--0---0-0--0---0-0--0--0-0-|--0---0-0--0---0-0--0----|
--2---2-2--3---3-3--3--3-3-|--2---2-2--0---0-0--0----|
--2---2-2--2---2-2--2--2-2-|--2---2-2--2---1-1--1----|
--2---2-2--2---2-2--2--2-2-|--2---2-2--2---2-2--2----|
--0---0-0--0---0-0--0--0-0-|--0---0-0--0---2-2--2----|
--0---0-0--0---0-0--0--0-0-|--0---0-0--0---0-0--0----|


--0---0-0--0---0-0--0--0-0-|--0---0-0--0---0-0--0----|
--2---2-2--3---3-3--3--3-3-|--2---2-2--0---0-0--0----|
--2---2-2--2---2-2--2--2-2-|--2---2-2--2---1-1--1----|
--2---2-2--2---2-2--2--2-2-|--2---2-2--2---2-2--2----|
--0---0-0--0---0-0--0--0-0-|--0---0-0--0---2-2--2----|
--0---0-0--0---0-0--0--0-0-|--0---0-0--0---0-0--0----|


--0---0-0--0---0-0--0--0-0-|--0---0-0--0---0-0--0----|
--2---2-2--3---3-3--3--3-3-|--2---2-2--0---0-0--0----|
--2---2-2--2---2-2--2--2-2-|--2---2-2--2---1-1--1----|
--2---2-2--2---2-2--2--2-2-|--2---2-2--2---2-2--2----|
--0---0-0--0---0-0--0--0-0-|--0---0-0--0---2-2--2----|
--0---0-0--0---0-0--0--0-0-|--0---0-0--0---0-0--0----|


--2---2-2--2---2-2--2--2-2-|--4---4-4--0---0-0--0----|
--4---4-4--4---4-4--4--4-4-|--5---5-5--2---2-2--2----|
--4---4-4--4---4-4--4--4-4-|--6---6-6--2---2-2--2----|
--4---4-4--4---4-4--4--4-4-|--6---6-6--2---2-2--2----|
--2---2-2--2---2-2--2--2-2-|--4---4-4--0---0-0--0----|
--2---2-2--2---2-2--2--2-2-|--4---4-4--0---0-0--0----|


--2---2-2--2---2-2--2--2-2-|--4---4-4--0---0-0--0----|
--4---4-4--4---4-4--4--4-4-|--4---4-4--2---2-2--2----|
--4---4-4--4---4-4--4--4-4-|--4---4-6--2---2-2--2----|
--4---4-4--4---4-4--4--4-4-|--6---6-6--2---2-2--2----|
--2---2-2--2---2-2--2--2-2-|--6---6-6--0---0-0--0----|
--2---2-2--2---2-2--2--2-2-|--4---4-4--0---0-0--0----|


--2---2-2--2---2-2--2--2-2-|--4---4-4--0---0-0--0----|
--4---4-4--4---4-4--4--4-4-|--4---4-4--2---2-2--2----|
--4---4-4--4---4-4--4--4-4-|--4---4-4--2---2-2--2----|
--4---4-4--4---4-4--4--4-4-|--6---6-6--2---2-2--2----|
--2---2-2--2---2-2--2--2-2-|--6---6-6--0---0-0--0----|
--2---2-2--2---2-2--2--2-2-|--4---4-4--0---0-0--0----|


--2---2-2--2---2-2--2--2-2-|--4---4-4--0---0-0--0----|
--4---4-4--4---4-4--4--4-4-|--4---4-4--2---2-2--2----|
--4---4-4--4---4-4--4--4-4-|--4---4-4--2---2-2--2----|
--4---4-4--4---4-4--4--4-4-|--6---6-6--2---2-2--2----|
--2---2-2--2---2-2--2--2-2-|--6---6-6--0---0-0--0----|
--2---2-2--2---2-2--2--2-2-|--4---4-4--0---0-0--0----|


--0---0-0--0---0-0--0--0-0-|--0---0-0--0---0-0--0----|
--2---2-2--3---3-3--3--3-3-|--2---2-2--0---0-0--0----|
--2---2-2--2---2-2--2--2-2-|--2---2-2--2---1-1--1----|
--2---2-2--2---2-2--2--2-2-|--2---2-2--2---2-2--2----|
--0---0-0--0---0-0--0--0-0-|--0---0-0--0---2-2--2----|
--0---0-0--0---0-0--0--0-0-|--0---0-0--0---0-0--0----|


--0---0-0--0---0-0--0--0-0-|--0---0-0--0---0-0--0----|
--2---2-2--3---3-3--3--3-3-|--2---2-2--0---0-0--0----|
--2---2-2--2---2-2--2--2-2-|--2---2-2--2---1-1--1----|
--2---2-2--2---2-2--2--2-2-|--2---2-2--2---2-2--2----|
--0---0-0--0---0-0--0--0-0-|--0---0-0--0---2-2--2----|
--0---0-0--0---0-0--0--0-0-|--0---0-0--0---0-0--0----|


--0---0-0--0---0-0--0--0-0-|--0---0-0--0---0-0--0----|
--2---2-2--3---3-3--3--3-3-|--2---2-2--0---0-0--0----|
--2---2-2--2---2-2--2--2-2-|--2---2-2--2---1-1--1----|
--2---2-2--2---2-2--2--2-2-|--2---2-2--2---2-2--2----|
--0---0-0--0---0-0--0--0-0-|--0---0-0--0---2-2--2----|
--0---0-0--0---0-0--0--0-0-|--0---0-0--0---0-0--0----|


--0---0-0--0---0-0--0--0-0-|--0---0-0--0---0-0--0----|
--2---2-2--3---3-3--3--3-3-|--2---2-2--0---0-0--0----|
--2---2-2--2---2-2--2--2-2-|--2---2-2--2---1-1--1----|
--2---2-2--2---2-2--2--2-2-|--2---2-2--2---2-2--2----|
--0---0-0--0---0-0--0--0-0-|--0---0-0--0---2-2--2----|
--0---0-0--0---0-0--0--0-0-|--0---0-0--0---0-0--0----|


--2---2-2--2---2-2--2--2-2-|--4---4-4--0---0-0--0----|
--4---4-4--4---4-4--4--4-4-|--4---4-4--2---2-2--2----|
--4---4-4--4---4-4--4--4-4-|--4---4-4--2---2-2--2----|
--4---4-4--4---4-4--4--4-4-|--6---6-6--2---2-2--2----|
--2---2-2--2---2-2--2--2-2-|--6---6-6--0---0-0--0----|
--2---2-2--2---2-2--2--2-2-|--4---4-4--0---0-0--0----|


--2---2-2--2---2-2--2--2-2-|--4---4-4--0---0-0--0----|
--4---4-4--4---4-4--4--4-4-|--4---4-4--2---2-2--2----|
--4---4-4--4---4-4--4--4-4-|--4---4-4--2---2-2--2----|
--4---4-4--4---4-4--4--4-4-|--6---6-6--2---2-2--2----|
--2---2-2--2---2-2--2--2-2-|--6---6-6--0---0-0--0----|
--2---2-2--2---2-2--2--2-2-|--4---4-4--0---0-0--0----|


--2---2-2--2---2-2--2--2-2-|--4---4-4--0---0-0--0----|
--4---4-4--4---4-4--4--4-4-|--4---4-4--2---2-2--2----|
--4---4-4--4---4-4--4--4-4-|--4---4-4--2---2-2--2----|
--4---4-4--4---4-4--4--4-4-|--6---6-6--2---2-2--2----|
--2---2-2--2---2-2--2--2-2-|--6---6-6--0---0-0--0----|
--2---2-2--2---2-2--2--2-2-|--4---4-4--0---0-0--0----|


--2---2-2--2---2-2--2--2-2-|--4---4-4--0---0-0--0----|
--4---4-4--4---4-4--4--4-4-|--4---4-4--2---2-2--2----|
--4---4-4--4---4-4--4--4-4-|--4---4-4--2---2-2--2----|
--4---4-4--4---4-4--4--4-4-|--6---6-6--2---2-2--2----|
--2---2-2--2---2-2--2--2-2-|--6---6-6--0---0-0--0----|
--2---2-2--2---2-2--2--2-2-|--4---4-4--0---0-0--0----|


----------------------------------------|---------------------------------|
----------------------------------------|----------------------12---------|
--14-----14-----14-----14-----14-----11-|-----11----12-----12------12-----|
-----12-----12-----12-----12-----12-----|--9------------10------------10--|
----------------------------------------|---------------------------------|
----------------------------------------|---------------------------------|


----------------------------------------|----------------------10---------|
----------------------------------------|---------------------------------|
--14-----14-----14-----14-----14-----11-|-----11----12-----12------12-----|
-----12-----12-----12-----12-----12-----|--9------------10------------10--|
----------------------------------------|---------------------------------|
----------------------------------------|---------------------------------|


----------------------------------------|---------------------------------|
----------------------------------------|----------------------12---------|
--14-----14-----14-----14-----14-----11-|-----11----12-----12------12-----|
-----12-----12-----12-----12-----12-----|--9------------10------------10--|
----------------------------------------|---------------------------------|
----------------------------------------|---------------------------------|


----------------------------------------|---------------------------------|
----------------------------------------|----------------------12---------|
--14-----14-----14-----14-----14-----11-|-----11----12-----12------12-----|
-----12-----12-----12-----12-----12-----|--9------------10------------10--|
----------------------------------------|---------------------------------|
----------------------------------------|---------------------------------|


--0---0-0--0---0-0--0--0-0-|--0---0-0--0---0-0--0----|
--2---2-2--3---3-3--3--3-3-|--2---2-2--0---0-0--0----|
--2---2-2--2---2-2--2--2-2-|--2---2-2--2---1-1--1----|
--2---2-2--2---2-2--2--2-2-|--2---2-2--2---2-2--2----|
--0---0-0--0---0-0--0--0-0-|--0---0-0--0---2-2--2----|
--0---0-0--0---0-0--0--0-0-|--0---0-0--0---0-0--0----|


--0---0-0--0---0-0--0--0-0-|--0---0-0--0---0-0--0----|
--2---2-2--3---3-3--3--3-3-|--2---2-2--0---0-0--0----|
--2---2-2--2---2-2--2--2-2-|--2---2-2--2---1-1--1----|
--2---2-2--2---2-2--2--2-2-|--2---2-2--2---2-2--2----|
--0---0-0--0---0-0--0--0-0-|--0---0-0--0---2-2--2----|
--0---0-0--0---0-0--0--0-0-|--0---0-0--0---0-0--0----|


--0---0-0--0---0-0--0--0-0-|--0---0-0--0---0-0--0----|
--2---2-2--3---3-3--3--3-3-|--2---2-2--0---0-0--0----|
--2---2-2--2---2-2--2--2-2-|--2---2-2--2---1-1--1----|
--2---2-2--2---2-2--2--2-2-|--2---2-2--2---2-2--2----|
--0---0-0--0---0-0--0--0-0-|--0---0-0--0---2-2--2----|
--0---0-0--0---0-0--0--0-0-|--0---0-0--0---0-0--0----|


--0---0-0--0---0-0--0--0-0-|--0---0-0--0---0-0--0----|--2------------------|
--2---2-2--3---3-3--3--3-3-|--2---2-2--0---0-0--0----|---------------------|
--2---2-2--2---2-2--2--2-2-|--2---2-2--2---1-1--1----|-----4---------------|
--2---2-2--2---2-2--2--2-2-|--2---2-2--2---2-2--2----|--------4------------|
--0---0-0--0---0-0--0--0-0-|--0---0-0--0---2-2--2----|---------------------|
--0---0-0--0---0-0--0--0-0-|--0---0-0--0---0-0--0----|---------------------|


--4------------------|--0---------------------|-------0----------------|
---------------------|-------2-------2--------|--2-------2----2--------|
-----6---------------|----------2-------2-----|------------------2-----|
--------6------------|---------------------2--|---------------------2--|
---------------------|------------------------|------------------------|
---------------------|------------------------|------------------------|


--2------------------|--4------------------|--------------------------|
---------------------|---------------------|--------------------------|
-----4---------------|-----6---------------|-----2-----------2-----2--|
--------4------------|--------6------------|--2-----2-----------------|
---------------------|---------------------|-----------0--0-----0-----|
---------------------|---------------------|--------------------------|


--------------------------|------------------------|------------------------|
--------------------------|-------4-------4--------|-------5-------5--------|
-----2-----------2-----2--|----------4-------4-----|----------6-------6-----|
--2-----2-----------------|--4------------------4--|--6------------------6--|
-----------0--0-----0-----|------------------------|------------------------|
--------------------------|------------------------|------------------------|


-------0----------------|-------0----------------|------------------------|
--2-------2----2--------|--2-------2----2--------|-------4-------4--------|
------------------2-----|------------------2-----|----------4-------4-----|
---------------------2--|---------------------2--|--4------------------4--|
------------------------|------------------------|------------------------|
------------------------|------------------------|------------------------|


------------------------|-------0----------------|-------0----------------|
-------5-------5--------|--2-------2----2--------|--2-------2----2--------|
----------6-------6-----|------------------2-----|------------------2-----|
--6------------------6--|---------------------2--|---------------------2--|
------------------------|------------------------|------------------------|
------------------------|------------------------|------------------------|


----------------------------------------|---------------------------------|
----------------------------------------|----------------------12---------|
--14-----14-----14-----14-----14-----11-|-----11----12-----12------12-----|
-----12-----12-----12-----12-----12-----|--9------------10------------10--|
----------------------------------------|---------------------------------|
----------------------------------------|---------------------------------|


----------------------------------------|----------------------10---------|
----------------------------------------|---------------------------------|
--14-----14-----14-----14-----14-----11-|-----11----12-----12------12-----|
-----12-----12-----12-----12-----12-----|--9------------10------------10--|
----------------------------------------|---------------------------------|
----------------------------------------|---------------------------------|


----------------------------------------|---------------------------------|
----------------------------------------|----------------------12---------|
--14-----14-----14-----14-----14-----11-|-----11----12-----12------12-----|
-----12-----12-----12-----12-----12-----|--9------------10------------10--|
----------------------------------------|---------------------------------|
----------------------------------------|---------------------------------|


----------------------------------------|---------------------------------|
----------------------------------------|----------------------12---------|
--14-----14-----14-----14-----14-----11-|-----11----12-----12------12-----|
-----12-----12-----12-----12-----12-----|--9------------10------------10--|
----------------------------------------|---------------------------------|
----------------------------------------|---------------------------------|


-----------------------------------|------------------------------|
-------------------------------10b-|------------------------------|
-----10-----12--10-12----12-9------|-----12---------10-----12--10-|
--12----12-------------------------|-------------12----12---------|
-----------------------------------|------------------------------|
-----------------------------------|------------------------------|


-----------------------------|--12b----10-12-10-9--10-12-10--9--|
--------------12------12-10--|----------------------------------|
--12----12-9-----------------|----------------------------------|
-----------------------------|----------------------------------|
-----------------------------|----------------------------------|
-----------------------------|----------------------------------|


--10-12-10-9--10-12-10--------|--10-12-10-9--10-12-10--9------|
------------------------------|-------------------------------|
------------------------------|-------------------------------|
------------------------------|-------------------------------|
------------------------------|-------------------------------|
------------------------------|-------------------------------|


------12-----10-----9-----10-----12--|------12-----10-----9-----10-----12--|
--10------10-----10----10-----10-----|--10------10-----10----10-----10-----|
-------------------------------------|-------------------------------------|
-------------------------------------|-------------------------------------|
-------------------------------------|-------------------------------------|
-------------------------------------|-------------------------------------|


--12--10-9--------12--10-9--------|------12-----10-----9-----10-----12--|
-----------12-10-----------12-10--|--10------10-----10----10-----10-----|
----------------------------------|-------------------------------------|
----------------------------------|-------------------------------------|
----------------------------------|-------------------------------------|
----------------------------------|-------------------------------------|


--12--10-9--------12--10-9--------|--12--10-9--------12~-------|
-----------12-10-----------12-10--|-----------12-10------------|
----------------------------------|----------------------------|
----------------------------------|----------------------------|
----------------------------------|----------------------------|
----------------------------------|----------------------------|


--2---2-2--2---2-2--2--2-2-|--4---4-4--0---0-0--0----|
--4---4-4--4---4-4--4--4-4-|--4---4-4--2---2-2--2----|
--4---4-4--4---4-4--4--4-4-|--4---4-4--2---2-2--2----|
--4---4-4--4---4-4--4--4-4-|--6---6-6--2---2-2--2----|
--2---2-2--2---2-2--2--2-2-|--6---6-6--0---0-0--0----|
--2---2-2--2---2-2--2--2-2-|--4---4-4--0---0-0--0----|


--2---2-2--2---2-2--2--2-2-|--4---4-4--0---0-0--0----|
--4---4-4--4---4-4--4--4-4-|--4---4-4--2---2-2--2----|
--4---4-4--4---4-4--4--4-4-|--4---4-4--2---2-2--2----|
--4---4-4--4---4-4--4--4-4-|--6---6-6--2---2-2--2----|
--2---2-2--2---2-2--2--2-2-|--6---6-6--0---0-0--0----|
--2---2-2--2---2-2--2--2-2-|--4---4-4--0---0-0--0----|


--2---2-2--2---2-2--2--2-2-|--4---4-4--0---0-0--0----|
--4---4-4--4---4-4--4--4-4-|--4---4-4--2---2-2--2----|
--4---4-4--4---4-4--4--4-4-|--4---4-4--2---2-2--2----|
--4---4-4--4---4-4--4--4-4-|--6---6-6--2---2-2--2----|
--2---2-2--2---2-2--2--2-2-|--6---6-6--0---0-0--0----|
--2---2-2--2---2-2--2--2-2-|--4---4-4--0---0-0--0----|


--2---2-2--2---2-2--2--2-2-|--4---4-4--0---0-0--0----|
--4---4-4--4---4-4--4--4-4-|--4---4-4--2---2-2--2----|
--4---4-4--4---4-4--4--4-4-|--4---4-4--2---2-2--2----|
--4---4-4--4---4-4--4--4-4-|--6---6-6--2---2-2--2----|
--2---2-2--2---2-2--2--2-2-|--6---6-6--0---0-0--0----|
--2---2-2--2---2-2--2--2-2-|--4---4-4--0---0-0--0----|


--2---2-2--2---2-2--2--2-2-|--4---4-4--0---0-0--0----|
--4---4-4--4---4-4--4--4-4-|--4---4-4--2---2-2--2----|
--4---4-4--4---4-4--4--4-4-|--4---4-4--2---2-2--2----|
--4---4-4--4---4-4--4--4-4-|--6---6-6--2---2-2--2----|
--2---2-2--2---2-2--2--2-2-|--6---6-6--0---0-0--0----|
--2---2-2--2---2-2--2--2-2-|--4---4-4--0---0-0--0----|


--2---2-2--2---2-2--2--2-2-|--4---4-4--0---0-0--0----|
--4---4-4--4---4-4--4--4-4-|--4---4-4--2---2-2--2----|
--4---4-4--4---4-4--4--4-4-|--4---4-4--2---2-2--2----|
--4---4-4--4---4-4--4--4-4-|--6---6-6--2---2-2--2----|
--2---2-2--2---2-2--2--2-2-|--6---6-6--0---0-0--0----|
--2---2-2--2---2-2--2--2-2-|--4---4-4--0---0-0--0----|


--2---2-2--2---2-2--2--2-2-|--4---4-4--0---0-0--0----|
--4---4-4--4---4-4--4--4-4-|--4---4-4--2---2-2--2----|
--4---4-4--4---4-4--4--4-4-|--4---4-4--2---2-2--2----|
--4---4-4--4---4-4--4--4-4-|--6---6-6--2---2-2--2----|
--2---2-2--2---2-2--2--2-2-|--6---6-6--0---0-0--0----|
--2---2-2--2---2-2--2--2-2-|--4---4-4--0---0-0--0----|


--2---2-2--2---2-2--2--2-2-|--4---4-4--0---0-0--0----|
--4---4-4--4---4-4--4--4-4-|--4---4-4--2---2-2--2----|
--4---4-4--4---4-4--4--4-4-|--4---4-4--2---2-2--2----|
--4---4-4--4---4-4--4--4-4-|--6---6-6--2---2-2--2----|
--2---2-2--2---2-2--2--2-2-|--6---6-6--0---0-0--0----|
--2---2-2--2---2-2--2--2-2-|--4---4-4--0---0-0--0----|


--0---0-0--0---0-0--0--0-0-|--0---0-0--0---0-0--0----|
--2---2-2--3---3-3--3--3-3-|--2---2-2--0---0-0--0----|
--2---2-2--2---2-2--2--2-2-|--2---2-2--2---2-2--2----|
--2---2-2--2---2-2--2--2-2-|--2---2-2--2---2-2--2----|
--0---0-0--0---0-0--0--0-0-|--0---0-0--0---0-0--0----|
--0---0-0--0---0-0--0--0-0-|--0---0-0--0---0-0--0----|


--0---0-0--0---0-0--0--0-0-|--0---0-0--0---0-0--0----|
--2---2-2--3---3-3--3--3-3-|--2---2-2--0---0-0--0----|
--2---2-2--2---2-2--2--2-2-|--2---2-2--2---2-2--2----|
--2---2-2--2---2-2--2--2-2-|--2---2-2--2---2-2--2----|
--0---0-0--0---0-0--0--0-0-|--0---0-0--0---0-0--0----|
--0---0-0--0---0-0--0--0-0-|--0---0-0--0---0-0--0----|


--0---0-0--0---0-0--0--0-0-|--0---0-0--0---0-0--0----|
--2---2-2--3---3-3--3--3-3-|--2---2-2--0---0-0--0----|
--2---2-2--2---2-2--2--2-2-|--2---2-2--2---2-2--2----|
--2---2-2--2---2-2--2--2-2-|--2---2-2--2---2-2--2----|
--0---0-0--0---0-0--0--0-0-|--0---0-0--0---0-0--0----|
--0---0-0--0---0-0--0--0-0-|--0---0-0--0---0-0--0----|


--0---0-0--0---0-0--0--0-0-|--0---0-0--0---0-0--0----|--0----------------|
--2---2-2--3---3-3--3--3-3-|--2---2-2--0---0-0--0----|--2----------------|
--2---2-2--2---2-2--2--2-2-|--2---2-2--2---2-2--2----|--2----------------|
--2---2-2--2---2-2--2--2-2-|--2---2-2--2---2-2--2----|--2----------------|
--0---0-0--0---0-0--0--0-0-|--0---0-0--0---0-0--0----|--0----------------|
--0---0-0--0---0-0--0--0-0-|--0---0-0--0---0-0--0----|--0----------------|


------------------||
------------------||
------------------||
------------------||
------------------||
------------------||


PARA PAU Y MAR

            
            
Suggest correction
Creating personal tab
Creating personal tab
You can edit any tab online and save it as your Personal.

You can edit, replace or remove any tab part or add personal notes – all changes will be seen only by you.

Personal tabs can be accessed anytime from any device, even offline.
Learn more »
Give kudos to tab author, rate the tab!
1 2 3 4 5
comments
print report bad tab
guest
Wanna post a correction for this tab? Suggest correction