Oops, an error
Loading. Please wait.

La Sirena Varada bass

439 views 3 this week
no commentswrite comment
1 2 3 4 5
3 more votes to show rating
add to favorites
×
Save as Personal and add changes to this tab that will be seen only by you. Learn more ›
×
You can save this tab as Personal to edit and correct it or add notes. All changes will be seen only by you. Learn more »
launch autoscroll
font size
0
reset
guitar tuner
edit
Autoscroll
slow
fast
+/-
esc
set tempo
stop
ESTRUCTURA:

1.-INTRO             
2.-VERSO 1 Y 2
3.-CORO
4.-VERSO 3
5.-INTRO
6.-INTERMEDIO
7.-SOLO
8.-INTRO
9.-CORO
10.-FINAL
LIGADO *


Intro:       (F#)                       (A)                      (D)         (E)         (D)

G ----------------------------------------------------------------------------------------
D ----------------------------------------------------------------------------------------
A-----------------------------------------------------5-----------7---------5-------5---
E -----------2-------------------5-*--7--*-5-5-------------------------------------------


 VERSOS 1 , 2 y 3

      F#                                                                              E                                       
G -----------------------------------------------------------------------------------------------------------                                  
D ------------------------------------------------------------------------------------------------------------   
A-------------------------------------------------------------------------------------------------------------    
E -2--2--2--2--2--2--2--2--2--2-2--2--2---------------------0-0--0--0-0-0--0-0--0--0--0--0--0--0---     
      1.-  Y me he enredado siempre entre algas               Maraña contra los dedos      
      2.- Hechar el ancla a babor                            Y de un extremo la argolla
      3.- Y dedicarte un sueño                                Cerrar los ojos y sentir

        F#                                                                            E                                       
G ------------------------------------------------------------------------------------------------------------                                  
D ------------------------------------------------------------------------------------------------------------   
A-------------------------------------------------------------------------------------------------------------    
E ---2--2--2--2--2--2--2--2--2-2--2--2--------------0--0-0-0--0-0--0--0--0--0--0--0---------------     
            Y cierras la madeja                        Con el fastidio del destino
   Y del otro tu corazon                            Mientras tanto  te sangra
   Oscuridad inmensa                                 Entregado una luz  como un


                 D                                   F#                                                 D                                      E
G ---------------------------------------------------------------------------------------------------------------------------
B----------------------------------------------------------------------------------------------------------------------------
A-------5--5--5--5--5--5-5-5----------------------------------------------5-5-5--5-5--5--5-5------7-7--7--7--7--7---
E ------------------------------------2-2--2--2--2--2--2--2--2------------------------------------------------------------
  Y el mordisco lo dan otros, encias ensangrentadas       y   miradas de criminales    a grandes rasgos 
 Y el mendigo siempre a tu lado, tu compañero de viaje  cuando las estrellas se apaguen tarde o temp.
Laberinto de incertidumbre,esquivas la pesadilla         y sobrevolar el cansancio y en un instante
                          F#                                               F#
G ---------------------------------------------------------------------------------------------
D ---------------------------------------------------------------------------------------------
A----------------------------------------------------------------------------------------------
E -----------------2--2--2--2--0--2--2--0--2-2----------2--2--0--2--2--0--2--2----------
       Podrias ser tu.
       Tambien vendras tu.
       En tierra otravez.-  Intro

Coro:
              A                                              E
G -----------------------------------------------------------------------------------------
D -----------------------------------------------------------------------------------------
A---------------------------------------------7--7--7--7--7--7--7--7-------------------
E -5-5--5--5--5--5--5--5-5--5-5--------------------------------------------------------
         Y duerme un poco mas      los parpados no aguantan ya
            F#                                                      D
G ----------------------------------------------------------------------------------------
D ----------------------------------------------------------------------------------------
A------9--9--9--9--9---9---9--9-----------------5--5--5---5---5--5---5--5--5-----
E -----------------------------------------------------------------------------------------
 luego estan las decepciones   cuando el cierzo no parece perdonar
            A                                              E
G -----------------------------------------------------------------------------------------
D -----------------------------------------------------------------------------------------
A---------------------------------------------7--7--7--7--7--7--7--7-------------------
E -5-5--5--5--5--5--5--5-5--5-5--------------------------------------------------------
 Sirena Vuelve al mar                   Varada por la realidad
             F#                                                      D                            D     A       E              E     A      D
G ----------------------------------------------------------------------------------------------------------------------
D ----------------------------------------------------------------------------------------------------------------------
A------9--9--9--9--9---9---9--9---------5--5-5-5--5--5---5---5------5--------------7-7-7----7--------5--5--5--
E ---------------------------------------------------------------------------------5-----0-0---------------5--------------
Sufrir de alucinaciones         cuando el cielo no parece        Es   -cu -char   


INTERMEDIO:

       A                                                  C#
G -------------------------------------------------------------------------------
D -------------------------------------------------------------------------------
A-------------------------------------------4--4--4---4--4-4--4-4-----------
E -5-5--5--5--5--5--5--5-5--5-5---------------------------------------------
     El miedo a transpasar la             frontera     de     los     

         F#                                               A - C#    
G ----------------------------------------------------------------------------------------
D ----------------------------------------------------------------------------------------
A-------------------------------------------------4--4--4--4--4--4---------------------
E ----2--2--2--2---2--2------------------5---------------------------------------------
         Nombres                  como u-n            extraño

               Bm                             E                            F#               
G -----------------------------------------------------------------------------------------
D -----------------------------------------------------------------------------------------
A--------2--2--2--2---2-2---------------------------------------------------------------
E --------------------------------0--0--0---0--0---0-----2--2---2--2--2---2--2--2-2--
                Dibuja la espiral de la derrota                   y oscurece tantos halagos   

           Bm         E              F#                       F# -A- D              D -A- E  
G ---------------------------------------------------------------------------------------------------
D ---------------------------------------------------------------------------------------------------
A------2--2------------------------------------------------5--5--------5---------7--7--7---7--
E ----------------0--0--------2--2--2--2---2-----2---5---------------------5--------------------
            Sol   en la memoria         que   se   va      
       F#                                                                            E                                       
G ------------------------------------------------------------------------------------------------------------                                  
D ------------------------------------------------------------------------------------------------------------   
A-------------------------------------------------------------------------------------------------------------    
E ---2--2--0--2--2--0--2--2--0-2--2--0--------------0--0-0-0--0-0--0--0--0--0--0--0---------------   

SOLO: F#, E, F# ,E, D, F#, D, E.  
INTRO:
CORO:   
              A                                              E
G -----------------------------------------------------------------------------------------
D -----------------------------------------------------------------------------------------
A---------------------------------------------7--7--7--7--7--7--7--7-------------------
E -5-5--5--5--5--5--5--5-5--5-5--------------------------------------------------------
         Y duerme un poco mas      los parpados no aguantan ya
            F#                                                      D
G ----------------------------------------------------------------------------------------
D ----------------------------------------------------------------------------------------
A------9--9--9--9--9---9---9--9-----------------5--5--5---5---5--5---5--5--5-----
E -----------------------------------------------------------------------------------------
 luego estan las decepciones   cuando el cierzo no parece perdonar
  
   
                   A                                     E
G -----------------------------------------------------------------------------------------
D -----------------------------------------------------------------------------------------
A---------------------------------------------7--7--7--7--7--7--7--7-------------------
E -5-5--5--5--5--5--5--5-5--5-5--------------------------------------------------------
 Sirena Vuelve al mar                   Varada por la realidad
             
              F#                                                      D                            D       A       E 
G -------------------------------------------------------------------------------------------------------------------
D -------------------------------------------------------------------------------------------------------------------
A------9--9--9--9--9---9---9--9---------5--5-5-5--5--5---5---5------5-----------------7-7---7--7--7-------
E -----------------------------------------------------------------------------------5-----0-0-----------------------
Sufrir de alucinaciones         cuando el cielo no parece        Es    -cu     -char   


FINAL:
       D                   E                A
G ----------------------------------------                                 
D ----------------------------------------   
A-5--5---5------------------------------    
E ------------------0--0---------5-------   


<-----------------

            
            
Suggest correction
Creating personal tab
Creating personal tab
You can edit any tab online and save it as your Personal.

You can edit, replace or remove any tab part or add personal notes – all changes will be seen only by you.

Personal tabs can be accessed anytime from any device, even offline.
Learn more »
Give kudos to tab author, rate the tab!
1 2 3 4 5
comments
print report bad tab
guest
Wanna post a correction for this tab? Suggest correction