Oops, an error
Loading. Please wait.

La Visión De Vuestras Almas tab

version 1
version 1

Whole song

Interactive

49 views 1 this week
no commentswrite comment
1 2 3 4 5
3 more votes to show rating
add to favorites
×
Save as Personal and add changes to this tab that will be seen only by you. Learn more ›
×
You can save this tab as Personal to edit and correct it or add notes. All changes will be seen only by you. Learn more »
launch autoscroll
font size
0
reset
how to read this tab
guitar tuner
edit
Autoscroll
slow
fast
+/-
esc
set tempo
stop
 Esto es la vision:

Intro:
   G
 e----3------2-----0-------------
 B------3------3-----3-------3---
 G--0------0-----0-----0--5------ x2
 D-------------------------------
 A-------------------------------
 E-------------------------------

   F
 e----1-----0------------------
 B---1--1-----1---3---1---1----
 G--0-----0-----0-------3------ x2
 D-----------------------------
 A-----------------------------
 E-----------------------------

   G
 e----3-----2-----0------------
 B---3--3-----3-----3------3---
 G--0-----0-----0-----0--5----- x2
 D-----------------------------
 A-----------------------------
 E-----------------------------
 
    F
 e----1-----0------------------
 B---1--1-----1---3---1---1----
 G--0-----0-----0-------3------ x2
 D-----------------------------
 A-----------------------------
 E-----------------------------

   G                            F
 e---3-----3-----3-----3----------1-----0-----1-----0------
 B--3--3-----3-----3-----3-------1--1-----1-----1-----1----
 G-0-----0-----0-----0-----0----0-----0-----0-----0-----0-- x2
 D---------------------------------------------------------
 A---------------------------------------------------------
 E---------------------------------------------------------
  
   C                             B 
 e----3-3--3-3--3--3-3--3-3--3------2-2-2-------2--------2--------
 B---5--5--5-5--5--5-5--5-5--5-----4--4---4-------4--------4------
 G--5---5--5-5--5--5-5--5-5--5----4---4-----4-------4--------4---- 
 D-5----5--5-5--5--5-5--5-5--5---4----4-------4-------4--------4--
 A----------------------------------------------------------------
 E----------------------------------------------------------------
 
   G      Bm     Em     C      D
 e--------------------------------3-3-3--3-3--3-3-3-3-----
 B-----3------3------0------1-----2-2-2--2-2--2-2-2-2-----
 G---4------4------0------0-------3-3-3--3-3--3-3-3-3----- x2
 D-5------4------2-------------0--------------------------
 A----------------------3---------------------------------
 E--------------------------------------------------------
 
 Verso:
    G                              F
           Y me pierdo entre los______signos
 e---3-----3-----3-------5--3--------1------0-1---5-1---0-1----
 B--3--3-----3-----3-----------3----1--1--------1-----1-----1--
 G-0-----0-----0-----0-------------0-----0---------------------
 D-------------------------------------------------------------
 A-------------------------------------------------------------
 E-------------------------------------------------------------

   G                                  F
           y las mentiras de los______libros...que mentirosos que son!

 e---3-----5-3----7-3---7-3----------1-----5-1---0-1---5-1-----
 B--3--3-------3------3-----3-------1--1-------1-----1-----1---
 G-0-----0-------------------------0-----0---------------------
 D-------------------------------------------------------------
 A-------------------------------------------------------------
 E-------------------------------------------------------------

 G                                  F
           que cada amane_____cer proponen
           
 e---3-----3-----5-----3------------1-----5-1---0-1---0-1------
 B--3--3-----3-----3-----3---------1--1-------1-----1-----1----
 G-0-----0-----0-----0-----0------0-----0----------------------
 D-------------------------------------------------------------
 A-------------------------------------------------------------
 E-------------------------------------------------------------
 
G                                  F
           cavar muertos sembrar    vivos
           
 e---3-----3-----5-----3------------1-----0-1---0-1---0-1------
 B--3--3-----3-----3-----3---------1--1-------1-----1-----1----
 G-0-----0-----0-----0-----0------0-----0----------------------
 D-------------------------------------------------------------
 A-------------------------------------------------------------
 E-------------------------------------------------------------
 
 Estribillo:
   C                             B 
           y no puedo recorda_______aaaar                la vi...
 e----3-3--3-3--3--3-3--3-3--3------2-2-2-------2--------2--------
 B---5--5--5-5--5--5-5--5-5--5-----4--4---4-------4--------4------
 G--5---5--5-5--5--5-5--5-5--5----4---4-----4-------4--------4---- 
 D-5----5--5-5--5--5-5--5-5--5---4----4-------4-------4--------4--
 A----------------------------------------------------------------
 E----------------------------------------------------------------
 
   G      Bm     Em     C      D
 ..sion de vuestras almas al pecar
 e--------------------------------3-3-3--3-3--3-3-3-3-----
 B-----3------3------0------1-----2-2-2--2-2--2-2-2-2-----
 G---4------4------0------0-------3-3-3--3-3--3-3-3-3----- x2
 D-5------4------2-------------0--------------------------
 A----------------------3---------------------------------
 E--------------------------------------------------------
 
 Verso 2:
  G                              F
     Aunque la historia no fuera cierta
 e---3-----2-----3------5-3--------1-----0----0-----3-1----
 B--3--3-----3-----3--------3-----1--1-----1----1-------1--
 G-0-----0-----0-----0-----------0-----0-----0----0--------
 D---------------------------------------------------------
 A---------------------------------------------------------
 E---------------------------------------------------------

 G                              F
     mi ignorancia me con_________dena
 e---3-----2-----3------2----------1-----0----1-----0------
 B--3--3-----3-----3------3-------1--1-----1----1-----1----
 G-0-----0-----0-----0------0----0-----0-----0----0-----0--
 D---------------------------------------------------------
 A---------------------------------------------------------
 E---------------------------------------------------------

  G                             F
  a robar el tiempo a los de atras
                                     (igual que la barra 
  G                        F            anterior)
  atreverse no merece la pena
 
  Luego estribillo (igual) y despues....la visioooonn!!!
 
   G                      F
 e-7-7-7-7-7-7-7-7-7-7-7--5-5-5-5-5-5-5-5-5-5---
 B-8-8-8-8-8-8-8-8-8-8-8--6-6-6-6-6-6-6-6-6-6---   (rasguido muy
 G-7-7-7-7-7-7-7-7-7-7-7--5-5-5-5-5-5-5-5-5-5--- x2  rapido 2 tiempos 
 D----------------------------------------------     en cada nota)
 A----------------------------------------------   
 E----------------------------------------------

  Solo:
  G                               F
 e------3-5-3---3-----3-5---3---------1-3-1---1-1--------------
 B----3-------3-----3-----3---3-----1-------1-----3-1-3-1-0----
 G--0-------------0---------------0-------------------------2--
 D-------------------------------------------------------------
 A-------------------------------------------------------------
 E-------------------------------------------------------------
 
   G                               F
 e------3-5-3---7-------5---3---------1-3-1---1-1--------------
 B----3-------3-----3-3---3---------1-------1-----3-1-3-1-1----
 G--0-----------------------------0----------------------------
 D-------------------------------------------------------------
 A-------------------------------------------------------------
 E-------------------------------------------------------------

  Luego estribillo (igual)

  verso 3:
   G                         F
              No entiendo mas que signos
 e-------3----------3--------------1----------1-----
 B-----3---3------3---3----------1---1------1---1---
 G---4----------4--------------2----------2---------
 D-5----------5--------------3----------3-----------
 A--------------------------------------------------
 E--------------------------------------------------

  G                         F
              y las locuras de un ...tigo...que loco que esta!
 e-------3----------3--------------1----3--1---1-----
 B-----3---3------3---3----------1---1-------3---1---
 G---4----------4--------------2-------------------2-
 D-5----------5--------------3-----------------------
 A---------------------------------------------------
 E---------------------------------------------------

  G                         F
          que cada atardecer quisiera   ...huuu!   
 e-------3----------3--------------1----1---1--------
 B-----3---3------3---3----------1---1----1---1------
 G---4----------4--------------2---------------------
 D-5----------5--------------3-----------------------
 A---------------------------------------------------
 E---------------------------------------------------

 G                         F
          sembrar muertos cavar vivooosss!...despiertos!   
 e-------3----------3--------------1----1---1--------
 B-----3---3------3---3----------1---1----1---1------
 G---4----------4--------------2---------------------
 D-5----------5--------------3-----------------------
 A---------------------------------------------------
 E---------------------------------------------------

  
   C                             B
          y no puedo recorda_____aar               la vi..
 e--------------------------------------------2----------
 B----------------------------------------------4-4------
 G-5--5--5-5--5--5--5--5-5--5---4--4--4-4--4--------4----
 D-5--5--5-5--5--5--5--5-5--5---4--4--4-4--4-------------
 A-3--3--3-3--3--3--3--3-3--3---2--2--2-2--2-------------
 E-------------------------------------------------------

   G      Bm     Em     C      D
 ..sion de vuestras almas al pecar
 e--------------------------------3-3-3--3-3--3-3-3-3-----
 B-----3------3------0------1-----2-2-2--2-2--2-2-2-2-----
 G---4------4------0------0-------3-3-3--3-3--3-3-3-3----- x2
 D-5------4------2-------------0--------------------------
 A----------------------3---------------------------------
 E--------------------------------------------------------

   G                      F
   hummm  la vision       la visiooooonnnnn 
 e-7-7-7-7-7-7-7-7-7-7-7--5-5-5-5-5-5-5-5-5-5---
 B-8-8-8-8-8-8-8-8-8-8-8--6-6-6-6-6-6-6-6-6-6--- (hasta el
 G-7-7-7-7-7-7-7-7-7-7-7--5-5-5-5-5-5-5-5-5-5---   fin)
 D----------------------------------------------
 A----------------------------------------------   
 E----------------------------------------------
  
 chururuchuchu bayba  uoohohohooooo  huuhu!


y bien amigos eso es todo de la vision ,es mi primera transcripcion 
asi que sepan perdonar errores .Saludos a todos los heroemaniacos
cualquier comentario o critica no dejen de escribirme
                            
                                   heroecanalla@

            
            
Suggest correction
Creating personal tab
Creating personal tab
You can edit any tab online and save it as your Personal.

You can edit, replace or remove any tab part or add personal notes – all changes will be seen only by you.

Personal tabs can be accessed anytime from any device, even offline.
Learn more »
Give kudos to tab author, rate the tab!
1 2 3 4 5
comments
print report bad tab
guest
Wanna post a correction for this tab? Suggest correction